Enviar cifraEntrar

Aos Pés do Monte

Tim e Vanessa

Cifra: Principal
exibições 23.319
Tom: C
Intro: ( Am  F7+  G  C  E7 )  2x
       ( Am  F7+  G  Am)  1x


       Am             F7+                 G              C        E
E|----------------------------------------------0-1----0--------0---|
B|-----1p0---0h1--------1p0---0h1---------0-1-3-----------3-1-------|
G|----2----2----2-----2-----2-----2---------------------------------|
D|------------------3-----------------------------------------------|
A|--0--------------------------------------------------3------------|
E|--------------------------------------3-----------------------0---|


         Am           F7+                G               C        E
E|----------------------------------------------0-1----0--------0---|
B|-----1p0---0h1--------1p0---0h1---------0-1-3-----------3-1-------|
G|----2----2----2-----2-----2-----2---------------------------------|
D|------------------3-----------------------------------------------|
A|--0--------------------------------------------------3------------|
E|--------------------------------------3-----------------------0---|


        Am                    F7+                G              Am
E|--------------------------------3------------------------|
B|-----1p0---0h1--------1p0---0h1---------0-1-3-1-0---1----|
G|----2----2----2-----2-----2------------------------------|
D|------------------3--------------------------------------|
A|--0-------------------------------------------------0----|
E|--------------------------------------3------------------|


Am                Dm
Um sentimento me ronda 
G                      C        E
Não sei dizer, tudo é novo pra mim 
Am               Dm
Meu coração se renova 
  G                   C          E
Sinto a esperança invadir o meu ser 

   Am      Am/C        Dm        Dm/F
Quero ser manso, ser limpo, ser justo 
   Am         E      Am
E pobre de espírito ser 
 Dm             G
Tua palavra me sonda 
             C           D/B       Am
Me conta do Reino que espera por mim 
Dm                  G
Eu te ofereço meu pranto 
              C                 E
As dores da alma que quer renascer 

    Am       Dm
Eu ouvi tua voz 
      G         C      E7
Teu falar me encantou 
      Am         Dm
Quis seguir, caminhar 
      G             C
Quis saber pra onde vou 
        Dm   Dm/F
Eis-me aqui 
       E E/G#          Am
Minha dor   serenou
  • 1
  • 2
  • 3
  • 4
  • 5
  • 6
  • 7
  • 8
  • 9
  • 10
  • 11
  • 12
    Acordes para:
      Composição: Gladston / TimColaboração e revisão:

      0 comentários

        mostrar mais comentários

        Conseguiu tocar?

        5tocaram0ainda não

        Grave um vídeo tocando Aos Pés do Monte e mande pra gente!

        00:00 / 00:00
        outros vídeos desta música
        repetirqualidadeautomática
        • automática
        Outro vídeos desta música
          00:00 / 00:00
          automática
          • automática
          Acordes para:violão e guitarra
          dificuldadeexibiçõescontribuições
          fecharplay/pause subir/descer velocidade
            Acordes para:violão e guitarra
            acordes
            fechar
            OK