Notificações Amigos pendentes

      Titãs

      32 Dentes

      964 exibições
      Intro 16x:
      G|--------------------
      D|--------------------
      A|--------------------
      E|--5-5-3-0-5-5-5-3-0-
      
      G|--------------------
      D|--------------------
      A|--5-5-3-0-5-5-5-3-0-  (4x)   Eu nunca mais vou dizer o que realmente penso
      E|-------------------          Eu nunca mais vou dizer o que realmente sinto
      
      G|-------------------
      D|--7-7-5--7-7-7-5---
      A|-------7--------7--   (2x)   Eu juro Eu juro(por Deus) 
      E|-------------------
      
      G|-----------------
      D|-----------------
      A|-----------------     (2x)   Não confio em ninguém
      E|-7-7-7-x-7-7-7-7-
      
      G|------------------
      D|------------------
      A|------------------           Não confio em ninguém com mais de 30
      E|--8-8-8-x-8-8-8-8-    (2x)   Não confio em ninguém com 32 Dentes
      
      G|--------------------
      D|--------------------
      A|--5-5-3-0-5-5-5-3-0-  (4x)   Eu não sei fazer música mas eu faço
      E|--------------------         Eu não sei cantar as músicas que faço mas eu canto
      
      G|------------
      D|------------
      A|------------          (4x)   Ninguém sabe nada 
      E|--3-3-3-----
      
        A Bb B C C# D D# A
      G|----------------------------------------------------------------------------------------------------------
      D|----------------------------------------------------------------------------------------------------------
      A|-----------------------------------2-2-0---2-2-2-0--3-3-1---3-3-1--3-3-3-1--4-4-2---4--4-4---5-5-3-5-5-5-3
      E|-5-5-3-0-5-5-5-3-0-6-6-4-2-6-6-6-4------2--------2--------2------3-------3-------3-------4-------4-----5---
      
      G|-----------------------
      D|-----------------------
      A|--6-6-4---6-6-6-4------
      E|--------6---------6-5~~
        Composição: Branco Mello/ Marcelo Fromer/ Sergio BrittoColaboração e revisão:
        • Pedro Henrique

        Comentários 0

        140 .
        140 cancelar

        conseguiu tocar?

        covers

        Grave um vídeo tocando 32 Dentes e mande pra gente!

        Ex.: http://www.youtube.com/watch?v=0IvSvIwGdwk
        ver covers de outras músicas »
        0:00 / 0:00

        Capítulos

          1 versão de violão dificuldade exibições contribuição e correção
          1 versão de guitarra dificuldade exibições contribuição e correção
          1 versão de cavaco dificuldade exibições contribuição e correção
          1 versão de teclado dificuldade exibições contribuição e correção
          1 versão de baixo exibições contribuição e correção
          1 versão de Guitar Proformatodownloadscontribuição
          play/pausefechar subir/descer velocidade
          6ª corda E5ª corda A4ª corda D3ª corda G2ª corda B1ª corda E
            acordes
            publicidade
            fechar
            ok