Cifra Club

Aprenda

Grace Like Rain Intro

Todd Agnew

Cifra: Principal (violão e guitarra)
tom: F
----------------------------------------------------------------------------Tabbed by: Daniel Ryu


Chords above are what 2nd guitar plays

      Dm          Bb         F                C
e|-----0-----|----0-----|----0----|-------0---0h1~-0-|
B|--------1--|-------1--|-------1-|----1----1--------|
G|-----------|----------|---------|------------------|
D|--0--------|----------|--3------|------------------| X2
A|-----------|--1-------|---------|--3---------------|
E|-----------|----------|---------|------------------|
     Dm          Bb         F                C
e|-----0-----0~--|----0-----0~---|----0----|-------0---0h1~-0-|
B|-------1---1~--|-------1--1~---|-------1-|----1----1--------|
G|-----------2~--|----------2~---|---------|------------------|
D|--0--------0~--|----------2~---|--3------|------------------| X2
A|---------------|--1------------|---------|--3---------------|
E|---------------|---------------|---------|------------------|



| /  slide up
| \  slide down
| h  hammer-on
| p  pull-off
| ~  vibrato
| +  harmonic
| x  Mute note
============================================================================
Composição de Crissy Collins / Todd Agnew
267 exibições
    • ½ Tom
    • A
    • Bb
    • B
    • C
    • Db
    • D
    • Eb
    • E
    • F
    • F#
    • G
    • Ab
  • Adicionar à lista

    0 comentários

    Ver todos os comentários
    00:00 / 00:00
    outros vídeos desta música
    repetir qualidade Automático
    Outros vídeos desta música
    00:00 / 00:00
    Automático

    Cifra Club Pro

    Aproveite o Cifra Club com benefícios exclusivos e sem anúncios
    Cifra Club Pro
    Aproveite o Cifra Club com benefícios exclusivos e sem anúncios
    OK