Cifra Club

Aprenda

Wave

Tom Jobim

Cifra: Principal (violão e guitarra)
tom: F
[Intro]

Dm7  G/D  Dm7  G/D (3x)
Dm7  G/D  Dm7

[Intro]

Parte 01 De 02[3x]

   Dm7     G/D   Dm7  G/D
E|-1---1---3-3----1---3-3-3----3-3----------|
B|-1---1---3-3----1---3-3-3----3-3----------|
G|-2---2---4-4----2---4-4-4----4-4----------|
D|-0-------0--------0--------0--------------|
A|------------------------------------------|
E|------------------------------------------|

[Parte 02 De 02]

   Dm7     G/D   Dm7
E|-1---1---3-3----1-------------------------|
B|-1---1---3-3----1-------------------------|
G|-2---2---4-4----2-------------------------|
D|-0-------0------0-------------------------|
A|------------------------------------------|
E|------------------------------------------|

[Primeira Parte]

           D7M(9)
Vou te contar
   Bbº                 Am7  D7(9-)
Os olhos já não podem ver
            G7M      Gm6
Coisas que só o coração 
           F#7(13)  F#7(13-)  B7(9)
Pode entender
      B7(9-)   E7(9)
Fundamental é mesmo o amor
        Bb7(13)   A7(13)
É impossível ser feliz 
   Dm7  G/D  Dm7  G/D
Sozinho

           D7M(9)
O resto é mar
   Bbº                 Am7  D7(9-)
É tudo que não sei contar
            G7M           Gm6
São coisas lindas que eu tenho 
        F#7(13)  F#7(13-)  B7(9)
Pra te dar
        B7(9-)      E7(9)
Vem de mansinho à brisa e me diz
        Bb7(13)   A7(13)
É impossível ser feliz
   Dm7  G/D  Dm7  G/D
Sozinho

[Primeira Parte]

[Parte 01 De 06]

   D7M(9)        Bbº
E|------------------------------------------|
B|-5--5----5-----5--5----6------------------|
G|-6--6----6-----6--6----6------------------|
D|-4--4----4-x---5--5----5------------------|
A|-5-----5----------------------------------|
E|---------------6-----6--------------------|

[Parte 02 De 06]

   Am7              D7(9-)
E|------------------------------------------|
B|-5---5---5----5---4--4----4---------------|
G|-5---5---5----5---5--5----5---------------|
D|-5---5---5----5---4--4----4---------------|
A|------------------5-----5-----------------|
E|---0-------0------------------------------|

[Parte 03 De 06]

   G7M              Gm6
E|------------------------------------------|
B|-3---3---3----3---3--3----3---------------|
G|-4---4---4----4---3--3----3---------------|
D|-4---4---4----4---2--2----2---------------|
A|------------------------------------------|
E|---3-------3------3-----3-----------------|

[Parte 04 De 06]

   F#7(13)  F#7(13-)  B7(9)   B7(9-)
E|------------------------------------------|
B|-4---4-----3--3-------2-2---1---2---------|
G|-3---3-----3--3-------2-2---2---2---------|
D|-2---2-----2--2-------1-1---1---1---------|
A|--------------------2---------2-----------|
E|---2-------2------------------------------|

[Parte 05 De 06]

   E7(9)           Bb7(13)  A7(13-)
E|------------------------------------------|
B|-7---7-----7-----8-8------6---6-----------|
G|-7---7-----7-----7-7------6---6-----------|
D|-6---6-----6-x---6-6------5---5-----------|
A|-7-------7--------------------------------|
E|-----------------6----------5-------------|

[Parte 06 De 06]

   Dm7     G/D   Dm7     G/D
E|-1---1---3-3----6---6---7-----7-----------|
B|-1---1---3-3----6---6---8-----8-----------|
G|-2---2---4-4----5---5---7-----7-----------|
D|-0-------0--------0-------0---------------|
A|------------------------------------------|
E|------------------------------------------|

[Segunda Parte]

 Gm7         C/Bb        Am7
Da primeira vez era a cidade
Ab/Bb          Bb/Ab
Da segunda, o cais 
           Gm7  A7(13-)  A7
E a eternida___de


[Terceira Parte]

A7           D7M(9)
Agora eu já sei
   Bbº                    Am7  D7(9-)
Da onda que se ergueu no mar
          G7M            Gm6
E das estrelas que esquecemos
       F#7(13)  F#7(13-)  B7(9)
De contar

        B7(9-)   E7(9)
O amor se deixa surpreender
            Bb7(13)   A7(13-)
Enquanto a noite vem nos 
      Dm7  G/D  Dm7  G/D
Envolver

[Segunda Parte]

[Parte 01 De 04]

   Gm7           C/Bb
E|------------------------------------------|
B|-3--3----3-----1--1----1------------------|
G|-3--3----3-----0--0----0------------------|
D|-3--3----3-x---2--2----2-x----------------|
A|---------------1-----1--------------------|
E|-3-----3----------------------------------|

[Parte 02 De 04]

   Am7
E|------------------------------------------|
B|-5--5----5-----5--5----5------------------|
G|-5--5----5-----5--5----5------------------|
D|-5--5----5-x---5--5----5-x----------------|
A|-0-----0-------0-----0--------------------|
E|------------------------------------------|

[Parte 03 De 04]

   Ab/Bb
E|------------------------------------------|
B|-1--1----1-----3--3----3------------------|
G|-1--1----1-----3--3----3------------------|
D|-1--1----1-x---3--3----3-x----------------|
A|-1-----1----------------------------------|
E|---------------4-----4--------------------|

[Parte 04 De 04]

   Gm7           A7(13-)  A7
E|------------------------------------------|
B|-3--3----3-----6-6------5---5-------------|
G|-3--3----3-----6-6------6---6-------------|
D|-3--3----3-x---5-5------5---5-------------|
A|------------------------------------------|
E|-3-----3-------5----------5---------------|

[Base Solo Piano]

D7M  Bbº  Am7  D7(9-)
G7M  Gm6  F#7(13)  F#7(13-)  
B7(9)  B7(9-)
E7(9)  Bb7(13)  A7(13-)
Dm7  G/D  Dm7  G/D

[Segunda Parte]

 Gm7         C/Bb        Am7
Da primeira vez era a cidade
Ab/Bb          Bb/Ab
Da segunda, o cais 
           Gm7  A7(13-)  A7
E a eternida___de

[Terceira Parte]

A7           D7M(9)
Agora eu já sei
   Bbº                    Am7  D7(9-)
Da onda que se ergueu no mar
          G7M            Gm6
E das estrelas que esquecemos
       F#7(13)  F#7(13-)  B7(9)
De contar
        B7(9-)   E7(9)
O amor se deixa surpreender
            Bb7(13)   A7(13-)
Enquanto a noite vem nos 
      Dm7  G/D  Dm7  G/D
Envolver

[Repete Intro]

Dm7  G/D  Dm7  G/D (3x)
Dm7  G/D  Dm7

           D7M(9)
Vou te contar
Composição de Tom Jobim
Colaboração e revisão:
  • Leandro Sandim
  • Lucas
28.397 exibições
  • Simplificar cifra
    • ½ Tom
    • A
    • Bb
    • B
    • C
    • Db
    • D
    • Eb
    • E
    • F
    • F#
    • G
    • Ab
  • Adicionar à lista

    0 comentários

    Ver todos os comentários
    00:00 / 00:00
    Outros vídeos desta música
    Repetir Qualidade Automático
    Outros vídeos desta música
    00:00 / 00:00
    Automático
    Capítulos
    • Tocando a Música
    • Apresentação / Equipamentos
    • Acordes da Introdução
    • Tocando a Introdução
    • Ensinando a Introdução - Parte 1 de 2
    • Ensinando a Introdução - Parte 2 de 2
    • Acordes da Primeira Parte
    • Tocando a Primeira Parte
    • Ensinando Primeira Parte - Parte 1 de 6
    • Ensinando Primeira Parte - Parte 2 de 6
    • Ensinando Primeira Parte - Parte 3 de 6
    • Ensinando Primeira Parte - Parte 4 de 6
    • Ensinando Primeira Parte - Parte 5 de 6
    • Ensinando Primeira Parte - Parte 6 de 6
    • Acordes da Segunda Parte
    • Tocando a Segunda Parte
    • Ensinando Segunda Parte - Parte 1 de 4
    • Ensinando Segunda Parte - Parte 2 de 4
    • Ensinando Segunda Parte - Parte 3 de 4
    • Ensinando Segunda Parte - Parte 4 de 4
    • Dica
    • Encerramento

    Cifra Club Pro

    Aproveite o Cifra Club com benefícios exclusivos e sem anúncios
    Cifra Club Pro
    Aproveite o Cifra Club com benefícios exclusivos e sem anúncios
    OK