Cifra Club

Aprenda

God Hates a Coward

Tomahawk

Cifra: Principal (violão e guitarra)
tom: A
h = 72
Riff 1

-----------------------------------------------------------------------------
-----------------------------------------------------------------------------
-----------------------------------------------------------------------------
----6---6---------------7--7-------------------8-8-----------4-------------=-
-----------4--5--4-4-----------4-4--5-4-4-4--------4-5-4-4------4-4----------
--------------------------------------------------------------------5-5-5-5--


Riff 2
-----------------------------------------------------------------------------
-----------------------------------------------------------------------------
-----------------------------------------------------------------------------
-----------------------------------------------------------------------------
----6---6-------------7--7-------------------8-8----------4-4----------7--7--
----------4-5--4-4---------4-4-5-4-4-4-----------4-5-4-4--------4---4--------


a musica segue a assim a ate a segunda parte jajaj boto a seguna parte
Composição de Duane Denison / John Stanier / Kevin Rutmanis / Mike Patton
Colaboração e revisão:
  • João Tavares
737 exibições
    • ½ Tom
    • A
    • Bb
    • B
    • C
    • Db
    • D
    • Eb
    • E
    • F
    • F#
    • G
    • Ab
  • Adicionar à lista

    0 comentários

    Ver todos os comentários

    Conseguiu tocar?

    0 Tocaram 0 Ainda não

    Grave um vídeo tocando God Hates a Coward e nos envie!

    00:00 / 00:00
    outros vídeos desta música
    repetir qualidade Automático
    Outros vídeos desta música
    00:00 / 00:00
    Automático

    Cifra Club Pro

    Aproveite o Cifra Club com benefícios exclusivos e sem anúncios
    Cifra Club Pro
    Aproveite o Cifra Club com benefícios exclusivos e sem anúncios
    OK