Cifra Club

Stronger Than Mine

Tonic

Cifra: Principal (violão e guitarra)
Selo Cifra Club: esta cifra foi revisada para atender aos critérios oficiais da nossa Equipe de Qualidade.
tom: Bb
Intro/Chorus - 
E|---------| |-0---0---0---0-0-----------|-3---3---3---3-3---------|
B|---------| |-1---1---1---1-1-----------|-0---0---0---0-0---------|
G|-------0-| |-0---0---0---0-0-----0-----|-0---0---0---0-0-------0-|
D|-----0---| |-2---2---2---2-2---2-------|-0---0---0---0-0-----0---|
A|-1h2-----| |-3---3---3---3-3-------1b2-|-2---2---2---2-2-1h2-----|
E|---------| |-----------------3---------|-3---3---3---3-3---------|

E|-0---0---0---0-0-----------|
B|-1---1---1---1-1-----------|
G|-0---0---0---0-0-----0-----|
D|-2---2---2---2-2---2-------|
A|-3---3---3---3-3-------1b2-|
E|-----------------3---------|

Verse Bar 1:                         Bar 2 - accent chords
E|---------------------------------|-------------------------------|
B|---------------------------------|-------------------------------|
G|---------------------------------|-------------------------5-----|
D|---------------------------------|---------------------3---5-----|
A|---------------------------------|---------------------3---3-----|
E|-3-3-3-3-3-3-3-3-3-3-3-3-3-3-3-3-|-3-3-3-3-3-3-3-3-3-3-1---------|
  Slight PM on notes

play bar 1 2x

Verse Bar 5 - play 2x
E|---------------------------------|
B|---------------------------------|
G|---------5---------5---5---5---5-|
D|---------5---------5---5---5---5-|
Bb|-3-3-3-3-3-3-3-3-3-3-3-3-3-3-3-3-|
E|---------------------------------|
   Slight PM on notes

Play Verse Bar 1 & 2 to finish the 8 bar pattern.


When repeat happens, play these bars in order: 1,2,1,1,5,5,2,1


Prechorus - play 2x
  Rhythm (Emerson)
E|---------------------------------|---------------------------------|
 C|---------------------------------|---------------------------------|
Ab|---------5---------5---5---5---5-|---------------------------------|
Eb|---------5---------5---5---5---5-|---------5---------5---5---5---5-|
Bb|-3-3-3-3-3-3-3-3-3-3-3-3-3-3-3-3-|---------5---------5---5---5---5-|
E|---------------------------------|-3-3-3-3-3-3-3-3-3-3-3-3-3-3-3-3-|
 |
 | Lead (Jeff)
 f|-----------------3---------------|-----------------2-------3p2-----|
 C|-------------1-------3-----------|---------0-----------3-------3---|
Ab|---------0-----------------------|---------------------------------|
Eb|-----2---------------------------|-----0---------------------------|
Bb|-3-------------------------------|---------------------------------|
E|---------------------------------|-3-------------------------------|



E|---------------------------------|---------------|
 C|---------------------------------|---------------|
Ab|---------5---------5---5---5---5-|---------------|
Eb|---------5---------5---5---5---5-|---------5-----|
Bb|-3-3-3-3-3-3-3-3-3-3-3-3-3-3-3-3-|---------5-----|
E|---------------------------------|-3-3-3-3-3-3---|
  |
  | Lead (Jeff)
 f|-----------------3---------------|---------------|
 C|-------------1-------3-----------|---------0-----|
Ab|---------0-----------------------|---------------|
Eb|-----2---------------------------|-----0---------|
Bb|-3-------------------------------|---------------|
E|---------------------------------|-3-------------|



 Both Guitars (Lead only is noted by *)
E|-0-------*0---------|-(0)------------------------|
B|-1---------*1---*1--|-(1)------------------------|
G|-2-----------*2-----|-(2)---------------------0--|
D|-2-----*2-----------|-(2)-------------------0----|
A|-0---*0-------------|-(0)---------------1h2------|
E|--------------------|----------------------------|


Chorus - Play Intro 3x without the pick-up notes

End Chorus (Lead only is noted by *) 
E|-0----0--0--0----0--0--|-0------------*0---------|----|
B|-1----1--1--1----1--1--|-3---------*3------------|----|
G|-2----2--2--0----0--0--|-0-----*0--------*0------|----|
D|-2----2--2--2----2--2--|-4--*4-------------------|----|
A|-0----0--0--3----3--3--|-5-----------------------|----|
E|-----------------------|-------------------------|-3--|

AFter Chorus, Lead plays the last note shown for 8 beats 
while Rhythm plays Verse bars 1 & 2



Play verse as before

Lead plays (at 1:38) 
E|-0----------------|---------0------------|--------------------|----|
B|-----1------------|-----1-------1--------|---------0----------|----|
G|---------0--------|----------------0-----|-----4------2h0-----|----|
D|-------------2----|-3--------------------|-5------------------|----|
A|------------------|----------------------|--------------------| rest|
E|------------------|----------------------|--------------------|----|


Play prechorus
Play Chorus

then, play:

Break, play 3x:
E|-------------------------------|------------------------------|
B|-------------------------------|-----------------------1--1-1-|
G|-------------------------------|-----------------------0--0-0-|
D|-----------------------5--5-5--|-----------------------2--2-2-|
A|-2/3---2/3---2/3---2/3-5--5-5--|-2/3---2/3---2/3---3\2-3--3-3-|
E|-0h1---0h1---0h1---0h1-3--3-3--|-0h1---0h1---0h1---1p0-3--3-3-|

then:
E|-------------------------------|--------------------------|
B|-------------------------------|--------------------------|
G|-------------------------------|------------------------0-|
D|-----------------------5--5-5--|----------------------0---|
A|-2/3---2/3---2/3---2/3-5--5-5--|-2/3---2/3---2/3--1h2-----|
E|-0h1---0h1---0h1---0h1-3--3-3--|-0h1---0h1---0h1----------|


Solo
E|-------------------|------5-------3---|----------------------------|
B|-------------------|------------------|------6----8----6----8----6~|
G|--------------3----|---/5-----5\3-----|--/7-----7----7----7----7---|
D|---5-5----3h5---5--|------------------|----------------------------|
A|-------------------|------------------|----------------------------|
E|-------------------|------------------|----------------------------|

E|-----------------------|-3---3-------------------------|
B|-5--8p6----6h8--8____\-|-3---3-------------------------|
G|-7------7--------------|-5b7-----5b7-5b7~~-7r5p3-5p3---|
D|-----------------------|----------------------------5~-|
A|-----------------------|-------------------------------|
E|-----------------------|-------------------------------|

E|--------------------------|-----0-------------|----------|
B|----5--5-----3------------|-----0---0---------|----------|
G|----5--5-3---3------------|-2/4---4---4-5-5p0-|-7~-------|
D|-5---------5-----5--3h5-5-|-------------------|----------|
A|--------------------------|-------------------|----------|
E|--------------------------|-------------------|----------|


At 3:03, Rhythm plays Intro Riff until a fade out

Lead plays (3:03):
E|---------------------------|-----------------------------|
B|---------------------------|-----------------------------|
G|---------------------------|-----------------------------|
D|----5-5---5-3h5-5-3h5p3----|----3-5--5--5p3-5-5p3-5-3----|
A|-----------------------5p3-|-3h5----------------------5--|
E|---------------------------|-----------------------------|

then,

Lead repeat this line with slight changes until fade out
E|----------------------------|-----------------------------|
B|----------------------------|-----------------------------|
G|----------------------------|-----------------------------|
D|-----5-5---5-3h5-5-3h5p3----|----3-5--5--5p3-5-5p3-5-3----|
A|------------------------5p3-|-3h5----------------------5--|
E|-6b7------------------------|-----------------------------|


key
h  = hammer-on
p  = pull-off
b  = bend
r  = release bend
/  = slide (also \)
__ = hold note
Outros vídeos desta música
    18 exibições
      • ½ Tom
      • A
      • Bb
      • B
      • C
      • Db
      • D
      • Eb
      • E
      • F
      • F#
      • G
      • Ab
    • Adicionar à lista

    Afinação da cifra

    Afinador online

      0 comentários

      Ver todos os comentários

      Entre para o Cifra Club PRO

      Tenha acesso a benefícios exclusivos no App e no Site

      • Chega de anúncios

      • Badges exclusivas

      • Mais recursos no app do Afinador

      • Atendimento Prioritário

      • Aumente seu limite de lista

      • Ajude a produzir mais conteúdo

      Cifra Club Pro

      Aproveite o Cifra Club com benefícios exclusivos e sem anúncios
      Cifra Club Pro
      Aproveite o Cifra Club com benefícios exclusivos e sem anúncios
      Ops (: Contenido disponible sólo en portugués.
      OK