Cifra Club

Where Do I Fit

Tonic

Cifra: Principal (violão e guitarra)
Selo Cifra Club: esta cifra foi revisada para atender aos critérios oficiais da nossa Equipe de Qualidade.
tom: D
{INTRO} Em, Dsus2 (D5), Asus4, A 

{VERSE}         
                 Em - Dsus2 - Asus4 - A                     Em - Dsus2 - Asus4 -
Where do I fit                            inside of it? 
Where do I stand?                         What is the plan? 

(Lead, played over intro & verse) 
     Em          Dsus2    Asus4      A         Em               Dsus2       Asus4             A 
E|-----------------------------------------------------------------------------------------------------------|
B|---5----5-5----3--------3--3-3-----2---------5-5-5-5-5-5------3-----------3--3--3--3--3--3---2-------------|
G|-----------------------------------------------------------------------------------------------------------|
D|-----------------------------------------------------------------------------------------------------------|
A|-----------------------------------------------------------------------------------------------------------|
E|-----------------------------------------------------------------------------------------------------------|


{CHORUS}
  Asus4           A             Dsus2 (D5)      A 
I long to see the sympathy that lives inside of you

   Asus4          Dsus2 (D5)  A 
I want to be more simple,     oh---------------- --oh 

{Lead played over chorus} 
E|--9--10--9--10--9--10--9--10--9--10--9--10--9--10--9--10--9--10--9--10--9~~~~~~--------------|
B|---------------------------------------------------------------------------------------------|
G|---------------------------------------------------------------------------------------------|
D|---------------------------------------------------------------------------------------------|
A|---------------------------------------------------------------------------------------------|
E|---------------------------------------------------------------------------------------------|
(repeat as necessary)
 

{2nd VERSE} 
                     Em - Dsus2 - Asus4 - A                     Em - Dsus2 - Asus4 - A 
But what is the plan                          for all of this? 
Where do I crawl?                             Where is the wall?

 {CHORUS} 
  Asus4           A             Dsus2 (D5)      A 
I long to see the sympathy that lives inside of you 

  Asus4           Dsus2 (D5)   A 
I want to be more simple,      oh---------------- --oh

 {BRIDGE} 
G            A      Bm       A           G 
Long night's strain Teach us change from fear------

 {G  O} 

   * = palm muting, blues style 
(b^) = bend note to fret in ( ) 
    `= release bend 
 (p) = pull off, don't pluck 
   / = slide up to fret 
   \ = slide down 
 ~~~ = vibrato ad-lib 

(Over verse chords) 
E|-------------------12*----/12~~~~12~~~~\-------------12(p)10--------------------------|
B|---------------12-------------------------------------------12*------12(p)10----------|
G|--14(b^15)*-----------------------------------------------------------------12*-------|
D|--------------------------------------------------------------------------------------|
A|--------------------------------------------------------------------------------------|
E|--------------------------------------------------------------------------------------|


E|-----------------------------------------------------------------12-12-----12~~~~~~~~~~~| <--- let ring
B|-----------------------------------------------------------------12-12--12*-------------|
G|--14(b^15| `)-(p)12---------------------------12---------14(b^15)-------------------------|
D|-----------------------14~~~~~~~\----12-/14----14---------------------------------------|
A|----------------------------------------------------------------------------------------|
E|----------------------------------------------------------------------------------------|

(D PEAT CHORUS) 

{OUTRO}                                                                (slow-------) 
                  Em - Dsus2 - Asus4 - A                  Em - Dsus2 - Asus4 - A 
What is the plan                          inside of here?
Outros vídeos desta música
    12 exibições
      • ½ Tom
      • A
      • Bb
      • B
      • C
      • Db
      • D
      • Eb
      • E
      • F
      • F#
      • G
      • Ab
    • Adicionar à lista

    Afinação da cifra

    Afinador online

      0 comentários

      Ver todos os comentários

      Entre para o Cifra Club PRO

      Tenha acesso a benefícios exclusivos no App e no Site

      • Chega de anúncios

      • Badges exclusivas

      • Mais recursos no app do Afinador

      • Atendimento Prioritário

      • Aumente seu limite de lista

      • Ajude a produzir mais conteúdo

      Cifra Club Pro

      Aproveite o Cifra Club com benefícios exclusivos e sem anúncios
      Cifra Club Pro
      Aproveite o Cifra Club com benefícios exclusivos e sem anúncios
      Ops (: Contenido disponible sólo en portugués.
      OK