Cifra Club

Astronomia

Tony Igy

Cifra: Principal (violão e guitarra)
tom: A
Afinação: EF#DGBE

o = batida com o pulso no corpo do violão

E|--------------------------------------------------|
B|--------------------------------------------------|
G|-11-11-11-11-11-11-11-11-11-11-11-11-11-11-11-11--|
D|--------------------------------------------------|
A|-0------------------------------------------------|
E|--------------------------------------------------|

E|-------------------------------------------------|
B|-11-11-11-11-11-11-11-11-11-11-11-11-11-11-11-11-|
G|-------------------------------------------------|
D|-------------------------------------------------|
A|-0-----------0-----------0-----------0-----------|
E|-------------------------------------------------|

E|-----------------------------------------------10/12-12-12-12----|
B|--12\10-10-10-10-10/14-14-14-14-14/12-12-12-12-------------------|
G|-----------------------------------------------------------------|
D|--0-----0--0--0--0-----0--0--0-----------------------------------|
A|-----------------------------------------------------------------|
E|--------------------------------0-----0--0--0--0-----0--0--0-----|

E|--12/14-14-14-14-14-14-14-14-14-14-14-------------|
B|--------------------------------------------------|
G|--------------------------------------------------|
D|--------------------------------------------------|
A|--0-----0--0--0--0--0--0--0--0--------------------|
E|--------------------------------------------------|

                 o  o        o  o  o  o     o  o     o  o        o     o     o  o        o     o
E|---------------------------------------------------------12/17-16-17-16-17-------12/17-16-17-16-17---|
B|--10/12\10-9---------12/14-12-------------12---------------------------------------------------------|
G|-------------9-11-11----------14-13-13-13----14p13-11-11-------------------11-11---------------------|
D|---------------0--0--------0--0----------------------------------------------------------------------|
A|---------------------------------------------------0--0--------0-----0-----0--0--------0-----0-------|
E|---------------------------------0--0-----0--0-------------------------------------------------------|
00:00 / 00:00
Outros vídeos desta música
Repetir
Outros vídeos desta música
Compositor não encontrado.
Colaboração e revisão:
  • Otávio Castro
  • Pedro Menegatti
  • Yan Lima
42.181 exibições
    • ½ Tom
    • A
    • Bb
    • B
    • C
    • Db
    • D
    • Eb
    • E
    • F
    • F#
    • G
    • Ab
  • Adicionar à lista

    0 comentários

    Ver todos os comentários

    Conseguiu tocar?

    25 Tocaram 22 Ainda não

    Grave um vídeo tocando Astronomia e nos envie!

    Entre para oCifra Club PRO

    Tenha acesso a benefícios exclusivos no App e no Site

    • Chega de anúncios

    • Prioridade de compra em lançamentos

    • Mais recursos no app do Afinador

    • Atendimento Prioritário

    • Descontos nos produtos Cifra Club

    • Ajude a produzir mais conteúdo

    00:00 / 00:00
    Capítulos
    • Apresentação / Equipamentos
    • Afinação
    • Ensinando Introdução
    • Ensinando Primeira Parte
    • Ensinando Segunda Parte
    • Tocando a Música
    • Encerramento

    Cifra Club Pro

    Aproveite o Cifra Club com benefícios exclusivos e sem anúncios
    Cifra Club Pro
    Aproveite o Cifra Club com benefícios exclusivos e sem anúncios
    OK