Cifra Club

Aprenda

Patterns

Tony Iommi

Cifra: Principal (violão e guitarra)
tom: C
|----------------------------------------------------------------------
|----------------------------------------------------------------------
|----------------------------------------------------------------------
|----------------------------------------------------------------------
|-7-------10-----7-12-10-7---7--7-10/13--------12--10--12-10---7-7-----
|-5--------8-----5-10--8-5---5--5--8/11--------10---8--10--8---5-5----- x2

 "Life is a story..."
|------------------------------------------------------------
|------------------------------------------------------------
|-----5------------------5------------5----------5---8-7-----
|---7-5-7--5--7----7-5-7-5-7-5-7----7-5-7-5-7--7-5-7-8-7-----
|---7---7--5--7----7-5-7---7-5-7----7---7-5-7--7---7---------
|------------------------------------------------------------ x2

"But to live means to be..."
|------------------------------------------------------------
|------------------------------------------------------------
|------------------------------------------------------------
|------------------------------------------------------------
|-10-----10-----10---12-12----7-------7-6------5----7--------
|--8------8------8---10-10----5--7--8--------7----6-5-------- x2

|------------------------------------------------------------
|------------------------------------------------------------
|------------------------------------------------------------
|------------------------------------------------------------
|-10-----10-----10---12-12-------14-14-14-14-14-14-14-14-14--
|--8------8------8---10-10-------12-12-12-12-12-12-12-12-12--

|------------------------------------------------------------
|------------------------------------------------------------
|-----5------------------5------------5----------5---8-7-----
|---7-5-7--5--7----7-5-7-5-7-5-7----7-5-7-5-7--7-5-7-8-7-----
|---7---7--5--7----7-5-7---7-5-7----7---7-5-7--7---7---------
|------------------------------------------------------------
|
|-----------------------------------------------------------------
|-----------------------------------------------------------------
|-----------------------------------------------------------------
|----------------------------------------------------12-11--------
|-----7----7-------------7----7-------7----7---------10--9-12-10--
|-----5----5-------------5----5-------5----5---------------10--8--

|-----------------------------------------------------------------------------------------
|-----------------------------------------------------------------------------------------
|-----------------------------------------------------------------------------------------
|-9------10--12--14\-9-----10--12--14\-9------10--12--14\-9------10-10-10-10-12-12-12-12--
|-7-------8--10--12\-7------8--10--12\-7-------8--10--12\-7-------8--8--8--8-10-10-10-10--
|-----------------------------------------------------------------------------------------

Composição de Tony Iommi
Colaboração e revisão:
  • Cássio Costa
1.547 exibições
    • ½ Tom
    • A
    • Bb
    • B
    • C
    • Db
    • D
    • Eb
    • E
    • F
    • F#
    • G
    • Ab
  • Adicionar à lista

    0 comentários

    Ver todos os comentários

    Conseguiu tocar?

    0 Tocaram 0 Ainda não

    Grave um vídeo tocando Patterns e nos envie!

    00:00 / 00:00
    outros vídeos desta música
    repetir qualidade Automático
    Outros vídeos desta música
    00:00 / 00:00
    Automático

    Cifra Club Pro

    Aproveite o Cifra Club com benefícios exclusivos e sem anúncios
    Cifra Club Pro
    Aproveite o Cifra Club com benefícios exclusivos e sem anúncios
    OK