Cifra Club

Deus de Promessas

Toque No Altar

Cifra: Solada
exibições 45.890
Tom: C
E|----------------------------------------------------------------------------------------------|
B|-10--8----------------------------------------------------------------------------------------|
G|---------10/12-------9-10/12--12-12-12---10-9-------------------------------------------------|
D|------------------12-----------------------------------10-------------------------------------|
A|----------------------------------------------------------------------------------------------|
E|----------------------------------------------------------------------------------------------|

E|----------------------------------------------------------------------------------------------|
B|-10-8-----------------------------------------------------------------------------------------|
G|--------10/12-------9-10/12--12-12-12-12/17-16-14---------------------------------------------|
D|------------------12--------------------------------------------------------------------------|
A|----------------------------------------------------------------------------------------------|
E|----------------------------------------------------------------------------------------------|

E|----------------12----------------------------------------------------------------------------|
B|--10--12--13------10-8-10--/12--12-13--15-15/18-17-15-13-12-13--------------------------------|
G|----------------------------------------------------------------------------------------------|
D|----------------------------------------------------------------------------------------------|
A|----------------------------------------------------------------------------------------------|
E|----------------------------------------------------------------------------------------------|

E|----------------------------------------------------------------------------------------------|
B|--13-12-13------------------------------------------------------------------------------------|
G|----------------------------------------------------------------------------------------------|
D|----------------------------------------------------------------------------------------------|
A|----------------------------------------------------------------------------------------------|
E|----------------------------------------------------------------------------------------------|

Refrão:

E|----------------------------------------------------------12-12--13---------------------------|
B|----------13-12--13---------13-12-13---10--13-13---------------10-13/15-----------------------|
G|--12-12--------------12-12--------------------------------------------------------------------|
D|----------------------------------------------------------------------------------------------|
A|----------------------------------------------------------------------------------------------|
E|----------------------------------------------------------------------------------------------|

E|------------------------------------------------12----------------12-12---13------------------|
B|-----------13-12-13---------------13---15-------13------13----------------10--13-13/15--------|
G|--12-12--------------12--12-12-----------------------12---------------------------------------|
D|----------------------------------------------------------------------------------------------|
A|----------------------------------------------------------------------------------------------|
E|----------------------------------------------------------------------------------------------|

(volta no inicio)

E|--------------------------------------------------------------------------12-13-12------------|
B|--13-13-13-12----------13-13-13-15-13-12-13--13-13-13-15-15-----------15-13--12-13------------|
G|----------------14-12-14----------------------------------------------------------------------|
D|----------------------------------------------------------------------------------------------|
A|----------------------------------------------------------------------------------------------
E|----------------------------------------------------------------------------------------------|

E|------------------------------------------------------------------------------------12-13-12--|
B|--13-13-13-12-------------------13-13-13----13-13-12-13--13-13-13--15----------13/15----------|
G|---------------------14--12--14---------------------------------------------------------------|
D|----------------------------------------------------------------------------------------------|
A|----------------------------------------------------------------------------------------------|
E|----------------------------------------------------------------------------------------------|
Acordes para:
    Colaboração e revisão:
    • Lucas Barreto
    • Mateus Furlane
    • joana lima

    0 comentários

      mostrar mais comentários

      Conseguiu tocar?

      15tocaram0ainda não

      Grave um vídeo tocando Deus de Promessas e mande pra gente!

      00:00 / 00:00
      outros vídeos desta música
      repetirqualidadeautomática
      Outro vídeos desta música
        00:00 / 00:00
        automática
        OK