Cifra Club

Tarde em Itapuã

Toquinho

Cifra: Principal
exibições 328.973
Tom: G#
[Intro] Gm  D#7m/G  Gm6  D#7m/G  Gm  D#7m/G  Gm6  D#7m/G

E|---3-5-6-10--10-11-10-8---------------------------------------8-9-8-6------------3|
B|--3--------------------10------------------------6-8-9-8--------------8-7-8-----3-|
G|-3-----------------------11-8-7-5-7-5-----------7-------8-7-5------------------5--|
D|5-------------------------------------8-5--5-6-8------------------------------3---|
A|-----------------------------------------------------------------------------3----|
E|----------------------------------------------------------------------------4-----|

Gm               C7/9
 Um velho calção de banho
Gm      Gm/F       Em7/5- A7
 O dia  prá   vadiar
   Dm7                G7/5+
 Um mar que não tem tamanho
Cm       Cm7/Bb    Am7/5-  D7/9-
 E um arco-íris no ar.
Gm                C7/9
 Depois na praça Caymmi
Gm        Gm/F      Em7/5- A7
 Sentir preguiça no corpo
Dm7                G7/5+
 E numa esteira de vime
Cm         Cm7/Bb      Am7/5-  D7/9-
 Beber uma água  de côco.

   G7+               Am7/4        Bm7           Am7/4        Bb7M
 É bom... passar uma tarde em Itapuã ao sol que arde em Itapuã
          Bbm6       Am7         D7/9    D7/9-   G7+
 Ouvindo o mar de Itapuã, falar de amor em Itapuã
             Am7/4        Bm7            Am7/4        Bb7M
 Passar uma tarde em Itapuã, ao sol que arde em Itapuã
          Bbm6       Am7        D7/9      D7/9-
 Ouvindo o mar de Itapuã, falar de amor em Itapuã

[Solo] Gm  D#7m/G  Gm6  D#7m/G

E|-----3-3-5-6-5-3----6---6------3-3-5-6-5-3----6---6-----|
B|----3--------------4-4-4-4-4--5--------------4-4-4-4-4--|
G|---3--------------3----------3--------------3-----------|   2x
D|--------------------------------------------------------|
A|--------------------------------------------------------|
E|--3--------------3----3---3-3--------------3----3---3---|

Gm                 C7/9
 Enquanto o mar inaugura
Gm        Gm/F          Em7/5- A7
 Um verde novinho em folha
Dm7                G7/5+
 Argumentar com doçura
Cm       Cm7/Bb      Am7/5-  D7/9-
Com uma cachaça de rolha.
Gm7                  C7/9
 E com o olhar esquecido
Gm7                   Em7/5- A7
 No encontro de céu e mar
Dm               G7/5+   Cm      Cm7/Bb     Am7/5-  D7/9-
 Bem devagar e sentindo  a terra toda rodar

    G7+               Am7/4        Bm7           Am7/4        Bb7M
 É bom... passar uma tarde em Itapuã ao sol que arde em Itapuã
          Bbm6       Am7         D7/9     D7/9-   G7+
 Ouvindo o mar de Itapuã, falar de amor em Itapuã
             Am7/4        Bm7            Am7/4        Bb7M
 Passar uma tarde em Itapuã, ao sol que arde em Itapuã
          Bbm6       Am7        D7/9      D7/9-
 Ouvindo o mar de Itapuã, falar de amor em Itapuã

[Solo] Gm  D#7m/G  Gm6  D#7m/G

E|---3-5-6-10--10-11-10-8---------------------------------------8-9-8-6------------3|
B|--3--------------------10------------------------6-8-9-8--------------8-7-8-----3-|
G|-3-----------------------11-8-7-5-7-5-----------7-------8-7-5------------------5--|
D|5-------------------------------------8-5--5-6-8------------------------------3---|
A|-----------------------------------------------------------------------------3----|
E|----------------------------------------------------------------------------4-----|

Gm7                  C7/9
 Depois sentir o arrepio
Gm        Gm/F          Em7/5- A7
 Do vento que a noite traz
Dm7                G7/5+
 E o diz-que-diz-que macio

Cm       Cm7/Bb      Am7/5-  D7/9-
 Que brota dos coqueirais

Gm7              C7/9
 E nos espaços serenos
Gm        Gm/F       Em7/5- A7
 Sem ontem nem amanhã
Dm7                  G7/5+    Cm    Cm7/Bb     Am7/5-  D7/9-
 Dormir nos braços morenos    da lua de Itapuã

   G7+               Am7/4        Bm7           Am7/4        Bb7M
 É bom... passar uma tarde em Itapuã ao sol que arde em Itapuã
          Bbm6       Am7         D7/9      D7/9-   G7+
 Ouvindo o mar de Itapuã, falar de amor em Itapuã
             Am7/4        Bm7            Am7/4        Bb7M
 Passar uma tarde em Itapuã, ao sol que arde em Itapuã
          Bbm6       Am7        D7/9       D7/9-    G7+
 Ouvindo o mar de Itapuã, falar de amor em Itapuã

E|-----3-3-5-6-5-3----6---6------3-3-5-6-5-3----6---6-----|          E|-----5--|
B|----3--------------4-4-4-4-4--5--------------4-4-4-4-4--|          B|----3---|
G|---3--------------3----------3--------------3-----------| 4x       G|---3----|
D|--------------------------------------------------------|          D|--5-----|
A|--------------------------------------------------------|          A|--------|
E|--3--------------3----3---3-3--------------3----3---3---|          E|--------|
Acordes para:

    0 comentários

      mostrar mais comentários

      Conseguiu tocar?

      15tocaram1ainda não

      Grave um vídeo tocando Tarde em Itapuã e mande pra gente!

      00:00 / 00:00
      outros vídeos desta música
      repetirqualidadeautomática
      Outro vídeos desta música
        00:00 / 00:00
        automática
        OK