Cifra Club

Aprenda

Digimon 4 - Fire - Acústico

Tragicômico

Cifra: Principal (violão e guitarra)
tom: D
Intro:
 Base: D C Bm C
E|------------------------------15p14-----|
B|--------------------15/17\15--------15--|
G|----------------14----------------------|
D|--12-12-12--16--------------------------|
A|----------------------------------------|
E|----------------------------------------|

E|------------------------------15p14------------17b19|
B|--------------------15/17\15--------15--15/17-------|
G|----------------14----------------------------------|
D|--12-12-12--16--------------------------------------|
A|----------------------------------------------------|
E|----------------------------------------------------|

(B5 A5 B5 A5 Dm)


D5        C#5           B5               A5
Vem sentir a emoção com o coração pegando fogo
G5               Bb5    C5        D5
Até o horizonte, você voará, vem!
D5          C#5        B5                  A5
Quero aquela sensação de bem-estar saindo do meu peito!
G5                Bb5    C5        D5 (D4 D5 D4 D5)
Eu querendo mais, quero ir mais além!

(Dedilhado)
        Bm           G
Sinto no ar, vai começar
     D                  A
Tudo aquilo que sonhei um dia
         Bm            G
Vou conseguir, vou mostrar
      D                   A           C
E num simples toque de magia, explodirá
D            C#m5+
O futuro, te asseguro
     F#            Bm
É bem mais que um simples jogo
C                  G                    D    (Bb C D)
A luz que você segura tem poder de fogo
D             C#m5+
O poder está, nos olhos à brilhar
F#                 Bm
O destino está em jogo
C                  G            D      (D D4 D C)
A coragem sem limites tem poder de fogo
                        D D4 D C
Seguindo o seu caminho (por onde for)
                       D D4 D C
Seja sempre o melhor (sempre o melhor)
                          D D4 D C
Não pense estar sozinho (não pense estar)
                    D
Você não está só!

Riff1
 Base: D C B D C B
E|---------------------------------------------------|
B|--------------------------/12--10------12--10------|
G|--/7--7-5-7~--7-5-7~---------------11---------11\--|
D|---------------------------------------------------|
A|---------------------------------------------------|
E|---------------------------------------------------| 

(D   C C#m5+ D)

D5           C#5                     B5            A5
Já não penso em seguir as regras que ditavam minha vida
G5                      Bb5        C5     D5
O mundo eu vou mudar, e tudo vai ficar bem
D5           C#5          B5                     A5
Agora preste atenção, nos batimentos aqui no meu peito
G5                    B5     C5        D5   (D4 D5 D4 D5)
O fogo me despertou, eu vou queimar também
        Bm        G
Pra onde ir? Como chegar?
        D           A
Por favor me dê uma resposta
      Bm         G
Agora sim, vejo passar
     D                 A              C
Todo tempo que perdi, agora vou recuperar

D               C#m5+
E ao meu redor, eu encontrarei
F#              Bm
O poder que vai me guiar
C               G                      D Bb C
Meus amigos me ajudarão a acender a chama
D               C#m5+
O poder que vai fazer tudo brilhar
F#               Bm
O destino vai me guiar
C                  G                    D      D4 D C
Até onde eu sempre quis ir, onde o fogo me chama
                 D  D4 D C
Rumo ao horizonte (eu vou chegar)
                   D    D4 D C
Nada vai me impedir (vou alcançar)
                    D   D4 D C
Dá pra sentir o poder (dá pra sentir)

A chama está aqui

E|-----------------|
B|-----------------|
G|--7-7-7-5-5-5-7--|
D|-----------------|
A|-----------------|
E|-----------------|

D            C#m5+
O futuro, te asseguro
     F#            Bm
É bem mais que um simples jogo
C                  G                    D    (Bb C D)
A luz que você segura tem poder de fogo
D             C#m5+
O poder está, nos olhos à brilhar
F#                 Bm
O destino está em jogo
C                  G            D      (D D4 D C)
A coragem sem limites tem poder de fogo
                        D D4 D C
Seguindo o seu caminho (por onde for)
                       D D4 D C
Seja sempre o melhor (sempre o melhor)
                          D D4 D C
Não pense estar sozinho (não pense estar)
                   
Você não está só!
Compositor não encontrado.
Colaboração e revisão:
  • Felipe Machado
1.630 exibições
    • ½ Tom
    • A
    • Bb
    • B
    • C
    • Db
    • D
    • Eb
    • E
    • F
    • F#
    • G
    • Ab
  • Adicionar à lista

    0 comentários

    Ver todos os comentários

    Conseguiu tocar?

    1 Tocaram 1 Ainda não

    Grave um vídeo tocando Digimon 4 - Fire - Acústico e nos envie!

    00:00 / 00:00
    Outros vídeos desta música
    Repetir Qualidade Automático
    Outros vídeos desta música
    00:00 / 00:00
    Automático

    Cifra Club Pro

    Aproveite o Cifra Club com benefícios exclusivos e sem anúncios
    Cifra Club Pro
    Aproveite o Cifra Club com benefícios exclusivos e sem anúncios
    OK