Cifra Club

Selfish Jean

Travis

Tab de baixo: Principal
Selo Cifra Club: esta cifra foi revisada para atender aos critérios oficiais da nossa Equipe de Qualidade.
Standard tuning: E A D G

Intro (with drums):

G--------------------------------------|
D--------------------------------------|
A-6-6-6--6-6-6--6-6--6-6-6--6-6-6--6-6-|
E--------------------------------------|

Guitar melody starts: 0:06

G--------------------------------------|
D--------------------------------------|
A-6-6-6--6-6-6--6-6--6-6-6--6-6-6--6-5-|
E--------------------------------------|

G--------------------------------------|
D--------------------------------------|
A-3-3-3--3-3-3--3-3--3-3-3--3-3-3--3-3-|
E--------------------------------------|

G--------------------------------------|
D--------------------------------------|
A--------------------------------------|
E-3-3-3--3-3-3--3-3--4-4-4--4-4-4--4-4-|

G--------------------------------------|
D--------------------------------------|
A-6-6-6--6-6-6--6-6--6-6-6--6-6-6--6-6-|
E--------------------------------------|

Verse: 0:27 "Cheers, thanks for everything..."

G--------------------------------------|
D--------------------------------------|
A-6-6-6--6-6-6--6-6--6-6-6--6-6-6--6-5-|
E--------------------------------------|

G--------------------------------------|
D--------------------------------------|
A-3-3-3--3-3-3--3-3--3-3-3--3-3-3--3-3-|
E--------------------------------------|

G--------------------------------------|
D--------------------------------------|
A--------------------------------------|
E-3-3-3--3-3-3--3-3--4-4-4--4-4-4--4-4-|

G--------------------------------------|
D--------------------------------------|
A-6-6-6--6-6-6--6-6--6-6-6--6-6-6--6-6-|
E--------------------------------------|

Verse: 0:48 "Hey you, threw it all away..."

G--------------------------------------|
D--------------------------------------|
A-6-6-6--6-6-6--6-6--6-6-6--6-6-6--6-5-|
E--------------------------------------|

G--------------------------------------|
D--------------------------------------|
A-3-3-3--3-3-3--3-3--3-3-3--3-3-3--3-1-|
E--------------------------------------|

G--------------------------------------|
D--------------------------------------|
A--------------------------------------|
E-3-3-3--3-3-3--3-3--4-4-4--4-4-4--4-4-|

G--------------------------------------|
D--------------------------------------|
A-6-6-6--6-6-6--6-6--6-6-6--6-6-6--6-5-|
E--------------------------------------|

Chorus: 1:09 "What a perfect understanding..."

G--------------------------------|
D--------------------------------|
A-----------------3-3-3----------|
E-3-3-3--3-3-3--3-------4-4-4--4-|

G--------------------------------|
D--------------------------------|
A-----------------3-3-3----------|
E-3-3-3--3-3-3--3-------1-1-1--1-|


G--------------------------------------|
D--------------------------------------|
A-1-1-1--1-1-1--1-1--1-1-1--1-1-1--1-1-|
E--------------------------------------|

G--------------------------------------|
D--------------------------------------|
A-6-6-6--6-6-6--6-6--6-6-6--6-6-6--6-6-|
E--------------------------------------|

Verse: 1:30 "Here's to you..."

G--------------------------------------|
D--------------------------------------|
A-6-6-6--6-6-6--6-6--6-6-6--6-6-6--6-5-|
E--------------------------------------|

G--------------------------------------|
D--------------------------------------|
A-3-3-3--3-3-3--3-3--3-3-3--3-3-3--3-3-|
E--------------------------------------|

G--------------------------------------|
D--------------------------------------|
A--------------------------------------|
E-3-3-3--3-3-3--3-3--4-4-4--4-4-4--4-4-|

G--------------------------------------|
D--------------------------------------|
A-6-6-6--6-6-6--6-6--6-6-6--6-6-6--6-6-|
E--------------------------------------|

Chorus: 1:51 "Well a perfect combination..."

G--------------------------------|
D--------------------------------|
A-----------------3-3-3----------|
E-3-3-3--3-3-3--3-------4-4-4--4-|

G--------------------------------|
D--------------------------------|
A-----------------3-3-3----------|
E-3-3-3--3-3-3--3-------1-1-1--1-|


G--------------------------------------|
D--------------------------------------|
A-1-1-1--1-1-1--1-1--1-1-1--1-1-1--1-1-|
E--------------------------------------|

G--------------------------------------|
D--------------------------------------|
A-6-6-6--6-6-6--6-6--6-6-6--6-6-6--6-5-|
E--------------------------------------|

Middle 8: 2:12 "Well I'm standing on my own..."

G--------------------------------------|
D--------------------------------------|
A-3-3-3--3-3-3--3-3--3-3-3--3-3-3--3-1-|
E--------------------------------------|

G--------------------------------------|
D--------------------------------------|
A--------------------------------------|
E-4-4-4--4-4-4--4-4--4-4-4--4-4-4--4-3-|

G--------------------------------------|
D--------------------------------------|
A--------------------------------------|
E-1-1-1--1-1-1--1-1--1-1-1--1-1-1--1-1-|

G--------------------------------------|
D--------------------------------------|
A-1-1-1--1-1-1--1-1--1-1-1--1-1-1--1/6-|
E--------------------------------------|

2:33 "There will be no..."

No bass until drums restart on 2:49

G--------------------------------------|
D--------------------------------------|
A-6-6-6--6-6-6--6-6--6-6-6--6-6-6--6-6-|
E--------------------------------------|

Verse: 2:54 "So hey here's to everything..."

G--------------------------------------|
D--------------------------------------|
A-6-6-6--6-6-6--6-6--6-6-6--6-6-6--6-5-|
E--------------------------------------|

G--------------------------------------|
D--------------------------------------|
A-3-3-3--3-3-3--3-3--3-3-3--3-3-3--3-3-|
E--------------------------------------|

G--------------------------------------|
D--------------------------------------|
A--------------------------------------|
E-3-3-3--3-3-3--3-3--4-4-4--4-4-4--4-4-|

G--------------------------------------|
D--------------------------------------|
A-6-6-6--6-6-6--6-6--6-6-6--6-6-6--6-6-|
E--------------------------------------|

Chorus: 3:15 "Well I don't expect a miracle..."

G--------------------------------|
D--------------------------------|
A-----------------3-3-3----------|
E-3-3-3--3-3-3--3-------4-4-4--4-|

G--------------------------------|
D--------------------------------|
A-----------------3-3-3----------|
E-3-3-3--3-3-3--3-------1-1-1--1-|


G--------------------------------------|
D--------------------------------------|
A-1-1-1--1-1-1--1-1--1-1-1--1-1-1--1-1-|
E--------------------------------------|

G--------------------------------------|
D--------------------------------------|
A-6-6-6--6-6-6--6-6--6-6-6--6-6-6--6-6-|
E--------------------------------------|

G--------------------------------------|
D--------------------------------------|
A-1-1-1--1-1-1--1-1--1-1-1--1-1-1--1-1-|
E--------------------------------------|

Outro: 3:42

G-------------------------------------|
D-------------------------------------|
A-6-6-6--6-5-5-5--5-3-3-3--3-1-1-1--1-|
E-------------------------------------|

G-----------------------------|
D-----------------------------|
A-------------------------1/6-|
E-4-4-4--4-3-3-3--3-1-1-1-----|

/ Slide up
Outros vídeos desta música
    357 exibições

    Afinação da cifra

    Afinador online

    0 comentários

    Ver todos os comentários

    Conseguiu tocar?

    0Tocaram0Ainda não

    Grave um vídeo tocando Selfish Jean e nos envie!

    Toque também

    1. Imagem do artista OasisWonderwall Oasis
    2. Imagem do artista KeaneSomewhere Only We Know Keane
    3. Imagem do artista StereophonicsMaybe Tomorrow Stereophonics
    4. Imagem do artista StarsailorWay to Fall Starsailor

    Entre para o Cifra Club PRO

    Tenha acesso a benefícios exclusivos no App e no Site

    • Chega de anúncios

    • Badges exclusivas

    • Mais recursos no app do Afinador

    • Atendimento Prioritário

    • Aumente seu limite de lista

    • Ajude a produzir mais conteúdo

    Cifra Club Pro

    Aproveite o Cifra Club com benefícios exclusivos e sem anúncios
    Cifra Club Pro
    Aproveite o Cifra Club com benefícios exclusivos e sem anúncios
    Ops (: Contenido disponible sólo en portugués.
    OK