Cifra Club

Sal e Luz

Trazendo a Arca

Cifra: Principal
exibições 17.492
Tom: B
Intro: B
                                (3x)             (4x)
E|----------------------------------|----------------|
B|----------------------------------|----------------|
G|--4-4-4-3-3-3-4-4-4-3-3-3-4-4-3-3-|--4-4-4-3-3-3-4-|
D|--4-4-4-4-4-4-4-4-4-4-4-4-4-4-4-4-|--4-4-4-4-4-4-4-|
A|--2-2-2-2-2-2-2-2-2-2-2-2-2-2-2-2-|--2-2-2-2-2-2-2-|
E|----------------------------------|----------------|

E   G#m   F#
ÔôÔ ôÔô Ô ô Ô ô

G#m    E          B   F#
O Senhor nos escolheu
G#m     E          B       F#
Nos ungiu e fez de nós Sua voz
G#m       E         B  F#
Com Sua graça nos cobriu
G#m     E        B      F#
E nos deu autoridade e poder

C#m   B/D#        E          F#
Levanta e brilha porque já vem a Tua luz
C#m      B/D#      E             F#
E Sobre Tua vida ... a glória de Deus

Refrão 2x:
E       F#
Somos o sal da terra
 E       F#                           B
Somos a luz do mundo
 D         E           B (Riff)
Povo escolhido do Senhor
E|---------------|
B|---------------|
G|--4/9-9-8-9-8~-|
D|--4/9-9-9-9-9~-|
A|--2/7-7-7-7-7~-|
E|---------------|

Intro: B
                                (3x)             (4x)
E|----------------------------------|----------------|
B|----------------------------------|----------------|
G|--4-4-4-3-3-3-4-4-4-3-3-3-4-4-3-3-|--4-4-4-3-3-3-4-|
D|--4-4-4-4-4-4-4-4-4-4-4-4-4-4-4-4-|--4-4-4-4-4-4-4-|
A|--2-2-2-2-2-2-2-2-2-2-2-2-2-2-2-2-|--2-2-2-2-2-2-2-|
E|----------------------------------|----------------|

Outro:
                                           (4x)
E|---------------------------------------------|
B|---------------------------------------------|
G|---------------------9-7~--------------------|
D|--7/9-9-9-7-7/9-9-9--9-7~--7/9-9-9-7-7/9-9-9-|
A|--7/9-9-9-7-7/9-9-9--7-5~--7/9-9-9-7-7/9-9-9-|
E|--5/7-7-7-5-5/7-7-7--------5/7-7-7-5-5/7-7-7-|

Refrão 2x:
E       F#
Somos o sal da terra
 E       F#                           B
Somos a luz do mundo
 D         E           B (Riff)
Povo escolhido do Senhor
E|---------------|
B|---------------|
G|--4/9-9-8-9-8~-|
D|--4/9-9-9-9-9~-|
A|--2/7-7-7-7-7~-|
E|---------------|

Entrada:
E|---------------------------------|
B|---------------------------------|
G|---------------------------------|
D|--7/9-9----9x-7x-6x-4x--2x-------|
A|--7/9-9----9x-7x-6x-4x--2x-0x-2~-|
E|--5/7-7-7x-7x-5x-4x-2x--0x-------|

Refrão 5x:
E       F#
Somos o sal da terra
 E       F#
Somos a luz do mundo
 D         E           B Riff Final
Povo escolhido do Senhor
E|---------------|
B|---------------|
G|--4/9-9-8-9-8~-|
D|--4/9-9-9-9-9~-|
A|--2/7-7-7-7-7~-|
E|---------------|

E|---------------------------------|
B|---------------------------------|
G|---------------------------------|
D|--9..7-7..6-6..4-4---0h2-0-------|
A|--x--x-x--x-x--x-x------------2~-|
E|--7..5-5..4-4..2-2---------------|

Final:
E   G#m   F#
ÔôÔ ôÔô Ô ô Ô ô

E   G#m  F#
ÔôÔ ôÔô Ô ô Ô ô

E   G#m  F#
ÔôÔ ôÔô Ô ô Ô ô
Acordes para:
    Composição: Ministério Trazendo a ArcaColaboração e revisão:

    0 comentários

      mostrar mais comentários

      Conseguiu tocar?

      1tocaram0ainda não

      Grave um vídeo tocando Sal e Luz e mande pra gente!

      00:00 / 00:00
      outros vídeos desta música
      repetirqualidadeautomática
      Outro vídeos desta música
        00:00 / 00:00
        automática
        OK