Cifra Club

Bijuteria

Trio Para Amar

Cifra: Principal (violão e guitarra)
tom: C
Intro.: (Am A9) 3x

(Am A9) 
Quando a noite cai
                           Dm
É que eu sinto a falta que você me faz
                                G
Saudade que não passa e nem me deixa em paz
E                              Am            E
A sombra de um amor que já brilhou demais.      
             Am                        
Você foi pra mim
                            Dm
A coisa mais bonita que me aconteceu
                             G
Nem pode imaginar os sonhos que me deu
E                                  Am   A7
E quanta insegurança que deixou o adeus.           

Dm
Amei você             
G                                     C
Sem truques,sem maldades,fiz o meu papel       
Am                            Dm 
Eu quis lhe oferecer o que ninguém me deu         
E                             Am     A7
Você não acredita,mas eu fui fiel

Dm                      
Amei você              
G                                  C 
Mas hoje posso ver que foi melhor assim
Am                               Dm
Preciso te esquecer pra me lembrar de mim          
E            Am   A7
A vida continua          

Dm                          G
E no brilho de uma pedra falsa
C                      Am       
Dei amor a quem não merecia   
Dm                 E                     Am   A7
Eu pensei que era uma jóia rara,era bijuteria

Dm                        G   
Das mentiras as palavras doces 
C                        Am
Se calou no teu olhar tão frio  
Dm                       E                   Am  A7
Na beleza do teu rosto esconde um coração vazio.

Solo Base: Dm G C Am Dm E  Am A Dm Em

e|-3/5-3---3/5-5--5--11-11-10-10-9--10---------------------10-10--8-7-8-5-|
B|-------6-----------13-13-12-12-11-12---8-6-5-6/8-8--8/12----------------|
G|------------------------------------------------------------------------|
D|------------------------------------------------------------------------|
A|------------------------------------------------------------------------|
E|------------------------------------------------------------------------|
                                       
e|-3/5-3---3/5-5---7-7-7-7-7-7-7-8-8-8-8-8/10-|
B|-------6------------------------------------|
G|--------------------------------------------|
D|--------------------------------------------|
A|--------------------------------------------|
E|--------------------------------------------|
                            
E|---------------------8---8-10/12-10-10-8-8----------------------------------------|
B|--------------8----9---9-------------------5h6-8-6-5--2h3-5-3-2-------------------|
G|-----9-7-10-9---10----------------------------------------------2-4-5-4-2---------|
D|-9-7----------------------------------------------------------------------5-3-2---|
A|--------------------------------------------------------------------------------5-|
E|----------------------------------------------------------------------------------|

Dm
Amei você             
G                                     C
Sem truques,sem maldades,fiz o meu papel       
Am                            Dm 
Eu quis lhe oferecer o que ninguém me deu         
E                             Am  A7
Você não acredita,mas eu fui fiel

Dm                      
Amei você              
G                                  C 
Mas hoje posso ver que foi melhor assim
Am                               Dm
Preciso te esquecer pra me lembrar de mim          
E            Am   A7
A vida continua          

Dm                          G
E no brilho de uma pedra falsa
C                      Am       
Dei amor a quem não merecia   
Dm                 E                     Am   A7
Eu pensei que era uma jóia rara,era bijuteria

Dm                        G   
Das mentiras as palavras doces 
C                        Am
Se calou no teu olhar tão frio  
Dm                       E                   Am
Na beleza do teu rosto esconde um coração vazio.
00:00 / 00:00
Outros vídeos desta música
Repetir
Outros vídeos desta música
Compositor não encontrado.
Colaboração e revisão:
  • Charles Pinto
12.183 exibições
    • ½ Tom
    • A
    • Bb
    • B
    • C
    • Db
    • D
    • Eb
    • E
    • F
    • F#
    • G
    • Ab
  • Adicionar à lista

    0 comentários

    Ver todos os comentários

    Conseguiu tocar?

    1 Tocaram 1 Ainda não

    Grave um vídeo tocando Bijuteria e nos envie!

    00:00 / 00:00

    Cifra Club Pro

    Aproveite o Cifra Club com benefícios exclusivos e sem anúncios
    Cifra Club Pro
    Aproveite o Cifra Club com benefícios exclusivos e sem anúncios
    OK