Cifra Club

Camisa 10

Turma do Pagode

Cifra: Principal (violão e guitarra)
tom: C#m
     
[Intro] B7M  G#m7(11)  
        C#m7  E/F#  D#m7  G#m7
        C#m7  E/F#  B7M  G#m7

[Tab - Solo Intro]

[Parte 1 De 3]
                   B7M  G#m7(11)
E|------------------------------------------|
B|--2-4-4---2-4-4---------------------------|
G|------------------------------------------|
D|------------------------------------------|
A|------------------------------------------|
E|------------------------------------------|

[Parte 2 De 3]
             C#m7    E/F#       D#m7   G#m7
E|------------------------------------------|
B|----------4--5-4-------------7----7-9-----|
G|-----------------6--------------8---------|
D|--4-6-4-6------------4-6-4-6--------------|
A|------------------------------------------|
E|------------------------------------------|

[Parte 3 De 3]
             C#m7   E/F#   B7M       G#m7
E|------------------------------------------|
B|----------4--5-4----4-------5/7-----------|
G|-----------------6------4-------6h8---6---|
D|--4-6-4-6-------------6-------------9---6-|
A|------------------------------------------|
E|------------------------------------------|

[Primeira Parte]

Cm7  C#m7                    
          Se um dia eu disser      
E/F#  
     Que não te amo
                
É que eu te amo     
B7M        B6  B7M         G#m7(11)
    Ainda mais,    pode acreditar
C#m7                     
     Se um dia eu disser    
E/F# 
     Que não te quero 
                  
É que eu te quero     
B7M             B6  B7M             B7(13)  B7
    O dobro ou mais,    tenta imaginar

[Pré-Refrão]

     E9              A#m7(5-)              A7(5-)
Não sei mentir, meus olhos dizem mais que minha boca
G#m7                                         
     Eu vejo que   não tem saída      
 F#4(6)                Fm7(5-)
        Esse teu jeito         meio louca
    C#m7(9)     E/F#                       B7M  B7(9)
Me faz feliz, amor que vai durar pra toda vida

[Refrão]

             E7M(9)          E5-(6/9)
Eu não me separo de você mulher
               D#m7              G#m7
Nem se a globeleza um dia me quiser
            C#m7(9)      
Se na mega-sena eu vencer
 E/F#                      F#/G#  F#5-/G#
Fico com você, fico com você
            E7M(9)             E5-(6/9)
Se no barcelona eu for camisa dez
             D#m7                G#m7
Me cobrir de ouro da cabeça aos pés
               C#m7(9)
Mesmo assim se isso acontecer
 E/F#                      F#/G#  F#5-/G#
Fico com você, fico com você

             E7M(9)          E5-(6/9)
Eu não me separo de você mulher
               D#m7              G#m7
Nem se a globeleza um dia me quiser
            C#m7(9)      
Se na mega-sena eu vencer
 E/F#                      F#/G#  F#5-/G#
Fico com você, fico com você
            E7M(9)             E5-(6/9)
Se no barcelona eu for camisa dez
             D#m7                   G#m7
Me cobrir de ouro da cabeça aos pés
               C#m7(9)
Mesmo assim se isso acontecer
 E/F#                      F#/G#  F#5-/G#
Fico com você, fico com você

[Solo] C#m7(9)  E/F#

[Tab - Solo] 

Parte 1 De 2
   C#m7(9)          E/F#
E|------4------------------------------------|
B|----4---7-5-4------4---5/7---5/7---5/7-----|
G|--4-----------6-4----6-----------6-----6---|
D|-------------------------------------------|
A|-------------------------------------------|
E|-------------------------------------------|

Parte 2 De 2
E|-------------------------------------------|
B|--5/7-5/7----------------------------------|
G|-------------------------------------------|
D|-------------------------------------------|
A|-------------------------------------------|
E|-------------------------------------------|

[Primeira Parte]

Cm7  C#m7                    
          Se um dia eu disser      
E/F#  
     Que não te amo
                
É que eu te amo     
B7M        B6  B7M         G#m7(11)
    Ainda mais,    pode acreditar
C#m7                     
     Se um dia eu disser    
E/F# 
     Que não te quero 
                  
É que eu te quero     
B7M             B6  B7M             B7(13)  B7
    O dobro ou mais,    tenta imaginar

[Pré-Refrão]

     E9              A#m7(5-)              A7(5-)
Não sei mentir, meus olhos dizem mais que minha boca
G#m7                                         
     Eu vejo que   não tem saída      
 F#4(6)                Fm7(5-)
        Esse teu jeito         meio louca
    C#m7(9)     E/F#                       B7M  B7(9)
Me faz feliz, amor que vai durar pra toda vida

[Refrão]

             E7M(9)          E5-(6/9)
Eu não me separo de você mulher
               D#m7              G#m7
Nem se a globeleza um dia me quiser
            C#m7(9)      
Se na mega-sena eu vencer
 E/F#                      F#/G#  F#5-/G#
Fico com você, fico com você
            E7M(9)             E5-(6/9)
Se no barcelona eu for camisa dez
             D#m7                G#m7
Me cobrir de ouro da cabeça aos pés
               C#m7(9)
Mesmo assim se isso acontecer
 E/F#                      F#/G#  F#5-/G#
Fico com você, fico com você

             E7M(9)          E5-(6/9)
Eu não me separo de você mulher
               D#m7              G#m7
Nem se a globeleza um dia me quiser
            C#m7(9)      
Se na mega-sena eu vencer
 E/F#                      F#/G#  F#5-/G#
Fico com você, fico com você
            E7M(9)             E5-(6/9)
Se no barcelona eu for camisa dez
             D#m7                G#m7
Me cobrir de ouro da cabeça aos pés
               C#m7(9)
Mesmo assim se isso acontecer
 E/F#                      F#/G#  F#5-/G#
Fico com você, fico com você

[Final] C#m7  C#m7  B4

[Tab - Solo Final]

        C#m7   C#m7   B4 
E|------------------------------------------|
B|------------------------------------------|
G|------6------6----6-4---------------------|
D|--4-6----4-6----6-------------------------|
A|------------------------------------------|
E|------------------------------------------|
00:00 / 00:00
Outros vídeos desta música
Repetir
Outros vídeos desta música
Composição de Charlles André
620.693 exibições
    • ½ Tom
    • Am
    • Bbm
    • Bm
    • Cm
    • C#m
    • Dm
    • Ebm
    • Em
    • Fm
    • F#m
    • Gm
    • G#m
  • Adicionar à lista

    0 comentários

    Ver todos os comentários

    Entre para oCifra Club PRO

    Tenha acesso a benefícios exclusivos no App e no Site

    • Chega de anúncios

    • Prioridade de compra em lançamentos

    • Mais recursos no app do Afinador

    • Atendimento Prioritário

    • Descontos nos produtos Cifra Club

    • Ajude a produzir mais conteúdo

    00:00 / 00:00

    Cifra Club Pro

    Aproveite o Cifra Club com benefícios exclusivos e sem anúncios
    Cifra Club Pro
    Aproveite o Cifra Club com benefícios exclusivos e sem anúncios
    OK