Cifra Club

Camisa Dez

Turma do Pagode

Cifra: Principal (violão e guitarra)
tom: B
[Intro]

D|-----------------------|--------------------------|
B|--2--4--4--2--4--4-----|--------------------------|
G|-----------------------|--------------------------|
D|-----------------------|--------------------------|

[Solo] C#m7  E/F#  B7M  B6  B7M  G#m7(11)
       C#m7  E/F#  B7M  B6  B7M  B7(13)

D|---------------------------------------4-----4--6-|
B|---------------4--5--4--------------------4-------|
G|------------------------6-------------------------|
D|---4--6--4--6--------------4--6--4--6-------------|

D|------------------------------------4-------------|
B|---------------4--5--4------------------4---------|
G|------------------------6--6-----4---------4--6---|
D|---4--6--4--6----------------6------------------6-|

Cm7    C#m7
     Se um dia eu disser
E/F#
que não te amo, é que eu te amo
B7M   B6  B7M       G#m7(11)
ainda mais, pode acreditar

C#m7
Se um dia eu disser
E/F#
que não te quero,é que eu te quero
B7M   B6   B7M       B7(13)
o dobro ou mais, tenta imaginar

E9
Não sei mentir
  A#m7(b5)
meus olhos dizem mais que minha boca
 G#m         G#m(7M)     G#m7           C#7(9)
Eu vejo que não tem saída, esse teu jeito meio louca
 E9
Me faz feliz
E/F#               B7M      B7M  A/B
amor que vai durar pra toda vida

       E9        E/F#
Eu não me separo de você mulher
      D#m7            G#m7
Nem se a globeleza um dia me quiser
      C#m7
Se na Mega-Sena eu vencer
F#7(4)       G#7(4)       G#7
Fico com você, fico com você

E9              F#7/E
Se no Barcelona eu for camisa 10
        D#m7          G#m7
Me cobrir de ouro da cabeça aos pés
       C#m7
Mesmo assim se isso acontecer
F#7(4)       G#7(4)           G#7
Fico com você, fico com você

D|--------6--4--------------------4--4-----|
B|-----5--------5--4--------4--------------|
G|--6-----------------6--4-----6-----------|
D|---------------------------------------4-|

D|-----------------------------------------|
B|-----------------------------------------|
G|----4--6-----4--6----6--4----------------|
D|-6--------6-------6----------------------|
00:00 / 00:00
Outros vídeos desta música
Repetir
Outros vídeos desta música
Composição de Charlles André
466.968 exibições
    • ½ Tom
    • A
    • Bb
    • B
    • C
    • Db
    • D
    • Eb
    • E
    • F
    • F#
    • G
    • Ab
  • Adicionar à lista

    0 comentários

    Ver todos os comentários

    Conseguiu tocar?

    21 Tocaram 5 Ainda não

    Grave um vídeo tocando Camisa Dez e nos envie!

    Entre para oCifra Club PRO

    Tenha acesso a benefícios exclusivos no App e no Site

    • Chega de anúncios

    • Prioridade de compra em lançamentos

    • Mais recursos no app do Afinador

    • Atendimento Prioritário

    • Descontos nos produtos Cifra Club

    • Ajude a produzir mais conteúdo

    00:00 / 00:00

    Cifra Club Pro

    Aproveite o Cifra Club com benefícios exclusivos e sem anúncios
    Cifra Club Pro
    Aproveite o Cifra Club com benefícios exclusivos e sem anúncios
    OK