Cifra Club

Aprenda

Truce

Twenty One Pilots

Cifra: Versão 2 (violão e guitarra)
Tom: G
E|---------3-2-0-----|
B|-0-1---0-------3-0-|
G|-----2-------------|
D|-------------------|
A|-------------------|
E|-------------------|

E|---------------------|
B|-----0-3----------0--|
G|-0-2-----2-0---------|
D|-------------2-0-----|
A|---------------------|
E|---------------------|


E|-----------3-2-0------|
B|-0-0-1---0-------3-0--|
G|-------2--------------|
D|----------------------|
A|----------------------|
E|----------------------|

E|---------------------|
B|-----0-3----------0--|
G|-0-2-----2-0---------|
D|-------------2-0-----|
A|---------------------|
E|---------------------|

E|--------------0--------|
B|------------0---3-0----|
G|---2-2-0-0----------2--|
D|-4----2----0-----------|
A|-----------------------|
E|-----------------------|

E|------------------------------|
B|------------0-----------------|
G|---2-2-0-0----2--0-0---0--0-0-|
D|-4----2----0---------4---2----|
A|------------------------------|
E|------------------------------|

E|---------3-2-0-----|
B|-0-1---0-------3-0-|
G|-----2-------------|
D|-------------------|
A|-------------------|
E|-------------------|

E|---------------------|
B|-----0-3----------0--|
G|-0-2-----2-0---------|
D|-------------2-0-----|
A|---------------------|
E|---------------------|

E|-----------3-2-0------|
B|-0-0-1---0-------3-0--|
G|-------2--------------|
D|----------------------|
A|----------------------|
E|----------------------|

E|---------------------|
B|-----0-3----------0--|
G|-0-2-----2-0---------|
D|-------------2-0-----|
A|---------------------|
E|---------------------|

E|--------------0--------|
B|------------0---3-0----|
G|---2-2-0-0----------2--|
D|-4----2----0-----------|
A|-----------------------|
E|-----------------------|

E|------------------------------|
B|------------0-----------------|
G|---2-2-0-0----2--0-0---0--0-0-|
D|-4----2----0---------4---2----|
A|------------------------------|
E|------------------------------|

E|---------------------|
B|-----0-3----------0--|
G|-0-2-----2-0---------|
D|-------------2-0-----|
A|---------------------|
E|---------------------|

E|-3-5-7-10-5-3-0------|
B|---------------3-----|
G|---------------------|
D|---------------------|
A|---------------------|
E|---------------------|
Composição de Tyler Joseph
Colaboração e revisão:
  • Luciana Bauer
264 exibições
    • ½ Tom
    • A
    • Bb
    • B
    • C
    • Db
    • D
    • Eb
    • E
    • F
    • F#
    • G
    • Ab
  • Adicionar à lista

    0 comentários

    Mostrar mais comentários

    Conseguiu tocar?

    1 Tocaram 0 Ainda não

    Grave um vídeo tocando Truce e mande pra gente!

    00:00 / 00:00
    outros vídeos desta música
    repetir qualidade Automático
    Outros vídeos desta música
    00:00 / 00:00
    Automático

    Cifra Club Pro

    Aproveite o Cifra Club com benefícios exclusivos e sem anúncios
    7 dias grátis
    Cifra Club Pro
    Aproveite o Cifra Club com benefícios exclusivos e sem anúncios
    7 dias grátis
    OK