Cifra Club

Aprenda

The Price

Twisted Sister

Cifra: Principal (violão e guitarra)
Tom: F
Intro Base (F C F C F C D)2x
Intro Solo-
E|-12^13---------------10-8------------|
B|------12-10-13-13-10-----10-8-10-----|
G|-------------------------------------|
D|-------------------------------------|
A|-------------------------------------|
E|-------------------------------------|

E|-12^13---------------10~-10-13-10----|
B|------12-10-13-13-10-----------------|
G|-------------------------------------|
D|-------------------------------------|
A|------------------------------------.|
E|-------------------------------------|

E|-12^13------------10-13-15~15~-------|
B|------12-10-13-15--------------------|
G|-------------------------------------|
D|-------------------------------------|
A|-------------------------------------|
E|-------------------------------------|
Fim Intro

Aqui esta a parte do dedilhado de algumas partes da musica!
 
  F       C        D
E|-------------------------------------|
B|---------------------6---8-6-5-6^5---|
G|----2-------5------------------------|
D|---3-3-----5-5------7-7--------------|
A|---------3--------5------------------|
E|-1-----------------------------------|


     
How long I have wanted     |
                           |
This dream to come true    |
                           | Dedilhado  
And as it approaches       |
                           |
I can't believe I'm through|
 F    C 
I've tried,
C            D D C Bb
Oh, How I've  tried   for a life,
      F   C  D
Yes a life I thought I knew

(Chorus)-----------------------------------

             F              C
|Oh it's the price we gotta pay

|            F              C
|And all the games we gotta play

|          F              C               D
|Makes me wonder if it's worth it to carry on

|               F             C
|'Cause it's a game we gotta lose,

|              F              C
|Though it's a life we gotta choose

|         F                C              D
|And the price is our own life until it's done
|-------------------------------------------------

Time seems to be frozen,   |
                           |
But the mind can be fooled | Dedilhado
                           |
As the days pass I discover|
                           |
Destiny just can't be ruled|
F      C     C      D       D C Bb
Hard times, Oh hard times,
                        F
For the prize, Yes the prize,
   C        D
I thought I knew
------------------------------------------------
|             F              C
|Oh it's the price we gotta pay      (Chorus)

|             F              C
|And all the games we gotta play

|          F              C             D
|Makes me wonder if it's worth it to carry on

|               F             C
|'Cause it's a game we gotta lose,

|               F             C
|Though it's a life we gotta choose

|         F                     C          D
|And the price is our own life until it's done
-------------------------------------------------


Solo
 -2:31-
E|-----------------------------------------------|
B|-8-10-10-8----------------------8^10-13-10^8---|
G|----------10-9-10-9-7------10-7----------------|
D|-----------------------8^10--------------------|
A|-----------------------------------------------|
E|-----------------------------------------------|

E|-----8--10-13-10--------10-8~--8^10-10-13-10---|
B|-8^10-10---------10-9--------------------------|
G|----------------------9------------------------|
D|-----------------------------------------------|
A|-----------------------------------------------|
E|-----------------------------------------------|

E|-------17-19~-21~~-21~~-21~~~~-|
B|-15-18-------------------------|
G|-------------------------------|
D|-------------------------------|
A|-------------------------------|
E|-------------------------------|

(Repeat Chorus x 2)
 
Composição de Dee Snider
Colaboração e revisão:
  • jose borrelli
21.635 exibições
    • ½ Tom
    • A
    • Bb
    • B
    • C
    • Db
    • D
    • Eb
    • E
    • F
    • F#
    • G
    • Ab
  • Adicionar à lista

    0 comentários

    Mostrar mais comentários

    Conseguiu tocar?

    4 Tocaram 0 Ainda não

    Grave um vídeo tocando The Price e mande pra gente!

    00:00 / 00:00
    outros vídeos desta música
    repetir qualidade Automático
    Outros vídeos desta música
    00:00 / 00:00
    Automático

    Cifra Club Pro

    Aproveite o Cifra Club com benefícios exclusivos e sem anúncios
    7 dias grátis
    Cifra Club Pro
    Aproveite o Cifra Club com benefícios exclusivos e sem anúncios
    7 dias grátis
    OK