Cifra Club

Life Is Killing Me

Type O Negative

Cifra: Principal (violão e guitarra)
Selo Cifra Club: esta cifra foi revisada para atender aos critérios oficiais da nossa Equipe de Qualidade.
tom: C#m
E|-----------------------|----------------------|
B|-----------------------|----------------------|
G|-------------2-2-4-5---|----------------------|
D|-------------2-2-4-5---|-------------9-9------|
A|--4-4-4/7/9b-0-0-2-3---|--4-4-4/7/9b-7-7-9-7--|
E|--2-2------------------|--2-2------------7-5--|

E|-------------------------------------------|
B|-------------------------------------------|
G|-------------------------------------------|
D|-------------2-2-4-5-----------------------|
A|--4-4-4/7/b9-0-0-2-3---------2--3--4--7----|
E|--2-2-----------------2~--5~---------------|

Lead (keys arranged for guitar. Come in on second rhythm play through) 
E|--17-16^17^16------------17-16^17^16-----21~--|
B|--------------17-14~-----------------17-------|
G|----------------------------------------------|
D|----------------------------------------------|
A|----------------------------------------------|
E|----------------------------------------------|

E|--17-16^17^16---------------21~--------------|
B|--------------17-14~-------------------------|
G|---------------------------------------------|
D|---------------------------------------------|
A|---------------------------------------------|
E|---------------------------------------------|

+Verse 1 (Synth arranged for guitar)
E|------------------------------------------|
B|------------------------------------------|
G|------------------------------------------|
D|------------------------------------------|
A|------------------------------------------|
E|--9--------6---------5---------7----------|


+Chorus 1 (Life is killing me . . .)
Lead x2
E|----------------7-9---------------7-6-4--|
B|--9-99999^7-7-9-----5-55555^7-5-7--------|
G|-----------------------------------------|
D|-----------------------------------------|
A|-----------------------------------------|
E|-----------------------------------------|
Rhythm x2
E|------------------------------------------|
B|------------------------------------------|
G|------------------------------------------|
D|------------------------------------------|
A|--6-6666-6/4-4444-42-2222-24-4444-4/6-/x--|
E|--4-4444-4/2-2222-20-0000-02-2222-2/4| /x--|
       ****     ****    ****    ****

+Verse 2 
Rhythm (1st, 2nd, and 4th times through)
E|-----------------------------------------|--------|-------|
B|-----------------------------------------|--------|-------|
G|-----------------------------------------|--------|-------|
D|-----------------------------------------|--------|-------|
A|--11111111111111-8888888-7777777-9999999-|-/9/7/9-|-------|
E|---9-9-9-9-9-9-9-6666666-5555555-7777777-|-/9/7/9-|-4^6/9-|
     *************  ******* ******* *******
Rhythm (3rd time through)
E|--------------------------------------------------|
B|--------------------------------------------------|
G|--------------------------------------------------|
D|--------------------------------------------------|
A|--1111111111/9/88888/9/8/777777-8/9999999---9v----|
E|---9-9-9-9-9/7/66666/7/6/555555-6/7777777-7----9--|
     **********   *****     ****** *******


+Chorus 2 (Life is killing me . . .)
Lead x2
E|----------------7-9---------------7-6-4--|
B|--9-99999^7-7-9-----5-55555^7-5-7--------|
G|-----------------------------------------|
D|-----------------------------------------|
A|-----------------------------------------|
E|-----------------------------------------|
Rhythm x2
E|---------------------------------------|
B|---------------------------------------|
G|---------------------------------------|
D|---------------------------------------|
A|--6-6666-6/4-4444-42-2222-24-4444-4/6--|
E|--4-4444-4/2-2222-20-0000-02-2222-2/4--|
       ****     ****    ****    ****


+Verse 3
Lead variation (1st, 2nd, and 4th times through)
E|-------------------------------------------------|
B|---------------------------------12--------------|
G|--13--------------------------------11-11--------|
D|--11-------------11---------11-11-------9--//xx--|
A|-----------------13------13----------------//xx--|
E|-------------------------------------------//xx--|
Lead variation (3rd time through)
E|-------------------------------------------------|
B|-------------------------------------------------|
G|--13-----13------13------13------13--------------|
D|--11-----11------11------11------11--------//xx--|
A|-------------------------------------------//xx--|
E|-------------------------------------------//xx--|
Rhythm (1st, 2nd, and 4th times through)
E|-----------------------------------------|--------|-------|
B|-----------------------------------------|--------|-------|
G|-----------------------------------------|--------|-------|
D|-----------------------------------------|--------|-------|
A|--11111111111111-8888888-7777777-9999999-|-/9/7/9-|-------|
E|---9-9-9-9-9-9-9-6666666-5555555-7777777-|-/9/7/9-|-4^6/9-|
     *************  ******* ******* *******
Rhythm (3rd time through)
E|--------------------------------------------------|
B|--------------------------------------------------|
G|--------------------------------------------------|
D|--------------------------------------------------|
A|--1111111111/9/88888/9/8/777777-8/9999999---9v----|
E|---9-9-9-9-9/7/66666/7/6/555555-6/7777777-7----9--|
     **********   *****     ****** *******


Breakdown part 1 @3:32
Rhythm x4
E|-----------------------------|
B|-----------------------------|
G|-----------------------------|
D|----4-----4-----4-----6^4----|
A|-----------------------------|
E|--4---4-4---4-4---0-0-----4--|

Breakdown part 2 @3:51
Lead x2 (with Sustainer or eBow)
E|----------------------------------------------|
B|----------------------------------------------|
G|--8-------9-------10------11------------------|
D|----------------------------------------------|
A|----------------------------------------------|
E|----------------------------------------------|
Rhythm x2
E|-----------------------------------------------|
B|-----------------------------------------------|
G|-----------------------------------------------|
D|-------------------------------------4---------|
A|--6-6-6-6-7-7-7-7-8-8-8-8-9-9-9-9-/6--^6^5^x---|
E|--4-4-4-4-5-5-5-5-6-6-6-6-7-7-7-7-----------4--|


Breakdown part 1 @4:08
Rhythm x4
E|-----------------------------|
B|-----------------------------|
G|-----------------------------|
D|----4-----4-----4-----6^4----|
A|-----------------------------|
E|--4---4-4---4-4---0-0-----4--|
Breakdown part 2 @4:25
Lead x2 (with Sustainer or eBow)
E|----------------------------------------------|
B|----------------------------------------------|
G|--8-------9-------10------11------------------|
D|----------------------------------------------|
A|----------------------------------------------|
E|----------------------------------------------|
Rhythm x2
E|-----------------------------------------------|
B|-----------------------------------------------|
G|-----------------------------------------------|
D|-------------------------------------4---------|
A|--6-6-6-6-7-7-7-7-8-8-8-8-9-9-9-9-/6--^6^5^x---|
E|--4-4-4-4-5-5-5-5-6-6-6-6-7-7-7-7-----------4--|


Breakdown part 1 @4:42
Rhythm x6
E|-----------------------------|
B|-----------------------------|
G|-----------------------------|
D|----4-----4-----4-----6^4----|
A|-----------------------------|
E|--4---4-4---4-4---0-0-----4--|


Intro Revisited
Rhythm x1
E|-----------------------|----------------------|
B|-----------------------|----------------------|
G|-------------2-2-4-5---|----------------------|
D|-------------2-2-4-5---|-------------9-9------|
A|--4-4-4/7/9b-0-0-2-3---|--4-4-4/7/9b-7-7-9-7--|
E|--2-2------------------|--2-2------------7-5--|

E|-------------------------------------------|
B|-------------------------------------------|
G|-------------------------------------------|
D|-------------2-2-4-5-----------------------|
A|--4-4-4/7/b9-0-0-2-3---------2--3--4--7----|
E|--2-2-----------------2~--5~---------------|

Intro Lead x1 (keys arranged for guitar)
E|--17-16^17^16------------17-16^17^16-----21~--|
B|--------------17-14~-----------------17-------|
G|----------------------------------------------|
D|----------------------------------------------|
A|----------------------------------------------|
E|----------------------------------------------|

E|--17-16^17^16---------------21~--------------|
B|--------------17-14~-------------------------|
G|---------------------------------------------|
D|---------------------------------------------|
A|---------------------------------------------|
E|---------------------------------------------|

Choir Break @5:32
Bass and Keys only


Chorus 3 @5:48
Lead
E|----------------7-9---------------7-6-4--|
B|--9-99999^7-7-9-----5-55555^7-5-7--------|
G|-----------------------------------------|
D|-----------------------------------------|
A|-----------------------------------------|
E|-----------------------------------------|
Rhythm
Play to the end finishing with the riff in the 2nd section
E|---------------------------------------|-------------------|
B|---------------------------------------|-------------------|
G|---------------------------------------|-------------------|
D|---------------------------------------|--6-----4----------|
A|--6-6666-6/4-4444-42-2222-24-4444-4/6--|----4-6---6-5-4----|
E|--4-4444-4/2-2222-20-0000-02-2222-2/4--|----------------4--|
       ****     ****    ****    ****
Outros vídeos desta música
    54 exibições
      • ½ Tom
      • Am
      • Bbm
      • Bm
      • Cm
      • C#m
      • Dm
      • Ebm
      • Em
      • Fm
      • F#m
      • Gm
      • G#m
    • Adicionar à lista

    Afinação da cifra

    Afinador online

      0 comentários

      Ver todos os comentários

      Entre para o Cifra Club PRO

      Tenha acesso a benefícios exclusivos no App e no Site

      • Chega de anúncios

      • Badges exclusivas

      • Mais recursos no app do Afinador

      • Atendimento Prioritário

      • Aumente seu limite de lista

      • Ajude a produzir mais conteúdo

      Cifra Club Pro

      Aproveite o Cifra Club com benefícios exclusivos e sem anúncios
      Cifra Club Pro
      Aproveite o Cifra Club com benefícios exclusivos e sem anúncios
      OK