Cifra Club

Dirty Day Live

U2

Cifra: Principal (violão e guitarra)
Tom: D
Tune down half-step
         
Main Riff
E|--------------------------|
B|--------------------------|
G|--------------------------|
D|--------------------------|
A|--------------------------|
E|--10--10/5---8--8/3-------|

         Chorus

    D     A
E|--------5---------------3--------|
B|--7-7---5---------5-5---3--------|
G|--7-7-x-6---------5-5-x-4--------|
D|--7-7-x-7---7--7--5-5-x-5---5--5-|   2X
A|--5-5-x-7---7--7--3-3-x-5---5--5-|
E|--------5---5--5--------3---3--3-|

     Solo

E|-----------------------------|
B|-----------------------------|
G|-----------------------------|
D|-16/17\16--14---14/15\14--12-|
A|-----------------------------|
E|-----------------------------|

E|-------------------------------------------------------------|
B|-----------------------------------15----------15---------15-|
G|-----------------------16-17-16-17----17-16-17---17-16-17----|
D|-16/17\16--14--14-15-19--------------------------------------|
A|-------------------------------------------------------------|
E|-------------------------------------------------------------|

E|-14-14-14-14-14-15-15-15-17-17-17-17-------------------------|
B|-------------------------------------17-17-17-17-17-17-17-17-|
G|-------------------------------------------------------------|
D|-------------------------------------------------------------|
A|-------------------------------------------------------------|
E|-------------------------------------------------------------|
exibições 1.635
Acordes para:

    0 comentários

    mostrar mais comentários

    Conseguiu tocar?

    0 tocaram 0 ainda não

    Grave um vídeo tocando Dirty Day Live e mande pra gente!

    00:00 / 00:00
    outros vídeos desta música
    repetir qualidade Automático
    Outros vídeos desta música
    00:00 / 00:00
    Automático
    OK