Cifra Club

Love and Peace or Else

U2

Cifra: Principal (violão e guitarra)
Tom: C
Backing Vocal: uh... uh...

Lay down...

G|--7--1010~--10/12-1212-----|
D|--x---x-x~---x--x--x-x-----|
A|--5---8-8~---8-10-1010-----|
Lay down 
Lay your sweet lovely on the ground 
Lay your love on the track 
We're gonna break the monster's back 
Yes we are… 

G|--7x--1010-7--545--------|
D|--xx---x-x-x--xxx--------|
A|--5x---8-8-5--323--------|
Lay down your treasure 
Lay it down now brother 
You don't have time 
For a jealous lover 

As you enter this life 
I pray you depart 
With a wrinkled face 
And a brand new heart 

G|-5-5--5-5--5-5--5-5--5-5--5-5--5-5--5-5-
D|-5-5--5-5--5-5--5-5--5-5--5-5--5-5--5-5-
A|-3-3--3-3--3-3--3-3--3-3--3-3--3-3--3-3-
I don't know if I can take it 

G|-7-7--7-7---10-10--10-10---7-7--7-7------------
D|-7-7--7-7---10-10--10-10---7-7--7-7---5-5--5-5-
A|-5-5--5-5---8--8---8--8----5-5--5-5---5-5--5-5-
E|--------------------------------------3-3--3-3-
I'm not easy on my knees 

D|-7-7--7-7--7-7--7-7--7-7--7-7--7-7--7-7-
A|-7-7--7-7--7-7--7-7--7-7--7-7--7-7--7-7-
E|-5-5--5-5--5-5--5-5--5-5--5-5--5-5--5-5-
Here's my heart you can break it 

D|-----------2--5--4--------5--4--------5--4----
A|-3----5-------------5--3--------5--3--------3-
I need some release, release, release 


G|-7-7--7-7---10-10--10-10---7--5--4--5-|
D|-7-7--7-7---10-10--10-10---7--5--4--5-|  (2x)
A|-5-5--5-5---8--8---8--8----5--3--2--3-|
We need, Love and peace
Love and peace 

G|--7--1010-7--10/12-1212-----|
D|--x---x-x-x---x--x--x-x-----|
A|--5---8-8-5---8-10-1010-----|
Lay down 
Lay down your guns 
All your daughters of Zion 
All your Abraham sons 

G|-5-5--5-5--5-5--5-5--5-5--5-5--5-5--5-5-
D|-5-5--5-5--5-5--5-5--5-5--5-5--5-5--5-5-
A|-3-3--3-3--3-3--3-3--3-3--3-3--3-3--3-3
I don't know if I can make it 

G|-7-7--7-7---10-10--10-10---7-7--7-7------------
D|-7-7--7-7---10-10--10-10---7-7--7-7---5-5--5-5-
A|-5-5--5-5---8--8---8--8----5-5--5-5---5-5--5-5-
E|--------------------------------------3-3--3-3-
I'm not easy on my knees 

D|-7-7--7-7--7-7--7-7--7-7--7-7--7-7--7-7-
A|-7-7--7-7--7-7--7-7--7-7--7-7--7-7--7-7-
E|-5-5--5-5--5-5--5-5--5-5--5-5--5-5--5-5-
Here's my heart and you can break it

D|-----------2--5--4--------5--4--------5--4----
A|-3----5-------------5--3--------5--3--------3-
I need some release, release, release

G|-7-7--7-7---10-10--10-10---7--5--4--5-|
D|-7-7--7-7---10-10--10-10---7--5--4--5-|  (2x)
A|-5-5--5-5---8--8---8--8----5--3--2--3-|
We need 
Love and peace 
Love and peace 

G|--7--|
D|--x--|
A|--5--|
Baby don't fight 
We can talk this thing through 
It's not a big problem 
It's just me and you 
You can call or I'll phone 
The TV is still on 
But the sound is turned down 
And the troops on the ground 
Are about to dig in 

(para tudo!!)
Love and peace!!!!!!!!!!!!!

Solo:
e|----------------------------------------------------------------|
B|-10-12-13--10-12-13--10-12-13--10-12-13--10-12-13--12-10/5-5----|

e|------------------------------------------------------------------------|
B|--13/15-151515-15/17-171717-17/18-1818-18/20-202020-191919-19/18-181818-|

e|---------------------------------------------------------------------|
B|--18/17-1717-17/15-1515-15/13-1313-13/12-1212-12/10-1010-10/8-88-7---|

e|-----------------------|
B|-7h8-7h8-7h8-7h8-7~~~--|

(Durante o solo o bono canta)
And I wonder where is the love? 
Where is the love? 
Where is the love? 
Where is the love? 
Love and peace 
exibições 11.218
Acordes para:
    Composição: Adam Clayton / Bono / Larry Mullen, Jr. / The Edge Colaboração e revisão:
    • Diego Sodre

    0 comentários

    mostrar mais comentários

    Conseguiu tocar?

    1 tocaram 0 ainda não

    Grave um vídeo tocando Love and Peace or Else e mande pra gente!

    00:00 / 00:00
    outros vídeos desta música
    repetir qualidade Automático
    Outros vídeos desta música
    00:00 / 00:00
    Automático
    OK