Cifra Club

The First Time

U2

Cifra: Principal (violão e guitarra)
Tom: E
Tune down 1/2 step, in E major--use these chords for E & A.

1-----------------------------------------------------
2-----------------------------------------------------
3---1--1--1--1--1--1--1--1----2--2--2--2--2--2--2--2--
4---2--2--2--2--2--2--2--2----2--2--2--2--2--2--2--2--
5---2--2--2--2--2--2--2--2----0--0--0--0--0--0--0--0--
6---0--0--0--0--0--0--0--0----------------------------

E             A   E                   A
I have a lover, a lover like no other
        E                           A        E                     A
She got soul, soul, soul, sweet soul and she teach me how to sing
C#m                           A
Shows me colours when there's none to see
C#m                  A                          E         A       E
Gives me hope when I can't believe that for the first time I feel love

(add this when playing the A chord):
1-----------------
2-----------------
3-----------------
4---9--11--12--11-
5---0--0---0---0--
6-----------------

E               A           E                A
I have a brother when I'm a brother in need
           E                  A              E                A
I spend my whole time running, he spends his running after me
C#m                A           C#m                A
When I feel myself going down, I just call and he comes around
            E          A       E
But for the first time, I feel love
Hoo...

1--------------------------------------
2--------------------------------------
3--------------------------------------
4-----------------------9---11--12--11-
5---9---11--12--11------0---0---0---0--
6---0---0---0---0----------------------
   E                   A            E                 A
My Father is a rich man, He wears a rich man's cloak
            E                   A                 E            A
Gave me the keys to His kingdom coming, gave me a cup of gold
         E                   A               E                     A
He said "I have many mansions, and there are many rooms to see."
      E                    A       E                    A
But I left by the back door, and I threw away the key 
      E                 A        C#m                 A
And I threw away the key, yeah I threw away the key
       C#m                 A   
Yeah I threw away the key
        E         A       E
For the first time I feel love
exibições 9.674
Acordes para:
    Composição: Adam Clayton / Bono / Larry Mullen, Jr. / The Edge Colaboração e revisão:
    • Léo

    0 comentários

    mostrar mais comentários

    Conseguiu tocar?

    0 tocaram 0 ainda não

    Grave um vídeo tocando The First Time e mande pra gente!

    00:00 / 00:00
    outros vídeos desta música
    repetir qualidade Automático
    Outros vídeos desta música
    00:00 / 00:00
    Automático
    OK