Cifra Club

Ciúme

Ultraje a Rigor

Cifra: Versão 3 (violão e guitarra)
tom: G
(Acústico)


INTRODUÇÃO:

Violão III:  (4X)

    G         D          C           D

Violão I:    (4X)

e|--3---7-7---5---5-5s---3---8-------5---5----------
b|--3---8-8---7---7-7s---5----8------7---7s8s7s5s7--
G|--0---7-7---7---7-7s---5------9----7---7-7-7------
D|--0---9-9---7---7-7s---5-------10--7---7----------
A|--2-----------------------------------------------
E|--3-----------------------------------------------

Violão II: (entra na 3X)

e|------10-7---7b8-7----8------7---7-----------
b|--8-8--------------10-----10--10-------------
G|---------------------------------------------
D|---------------------------------------------
A|---------------------------------------------
E|---------------------------------------------

e|------10-7---7b8-7-----------7-10-7------7---
b|--8-8--------------10-8----10---------10-----
G|---------------------------------------------
D|---------------------------------------------
A|---------------------------------------------
E|---------------------------------------------

VERSO:

Violão I:

e|--3---7-7---5---5-5s---3---8-------5---5----------
b|--3---8-8---7---7-7s---5----8------7---7s8s7s5s7--
G|--0---7-7---7---7-7s---5------9----7---7-7-7------
D|--0---9-9---7---7-7s---5-------10--7---7----------
A|--2-----------------------------------------------
E|--3-----------------------------------------------

Violão II:

G            D
  Eu quero levar
       C        D
  Uma vida moderninha
G          D           C 
  Deixar minha menininha
          D
  Sair sozinha

G             D   
  Não ser machista
           C            D
  E não bancar o possessivo
G            D
  Ser mais seguro
         C            D
  E não ser tão impulsivo

REFRÂO:

Violões I, II, III:

G           Bm       C   D
  Mas eu me mordo de cíume
G           Bm       C   D 
  Mas eu me mordo de ciúme

INTRODUÇÃO:


Violão I:

e|------10-7---7b8-7----8------7-10-7----------
b|----8--------------10-----10-----------------
G|---------------------------------------------
D|---------------------------------------------
A|---------------------------------------------
E|---------------------------------------------

e|--------10-7---7b8-7----8-------7-10-7----------
b|--8-8-8--------------10-----10---------10-8-7-8-
G|------------------------------------------------
D|------------------------------------------------
A|------------------------------------------------
E|------------------------------------------------

VERSO: Mesma forma do anterior

REFRÃO: Mesma forma do anterior

SOLO:

Violão I:

e|--------------------------------------------------------------------------
b|--------------------------------------------------------------------------
G|----------4h5-4----------------------4h5-4------7h9-7---------------------
D|-5-5-5----------5---------5-5-5-5----------5-----------7h9-7-7---5--7-5---
A|-------5----------5-5h7-----------5----------5-----------------5----------
E|--------------------------------------------------------------------------

e|-3---------3----------10/12-10-7------------------------15-12-12-10-10-7--
b|---3h5-3-----3h5-3----10/12-10-7----8-8---8---8-10-8--8/15-12-12-10-10-7--
G|---------4-------------------------9---9----------------------------------
D|--------------------------------------------------------------------------
A|--------------------------------------------------------------------------
E|--------------------------------------------------------------------------

e|-----------------7-5------------------------------------------------
b|-3/5---5-5-5/7-7-----5/7--7h8-8/10/8--------------------------------
G|--------------------------------------------------------------------------
D|--------------------------------------------------------------------------
A|--------------------------------------------------------------------------
E|--------------------------------------------------------------------------



VERSO: Mesma forma do anterior

REFRÃO: Mesma forma do anterior

PONTE: 

Violões I, II, III:

   A   C  D  Dm

REFRÃO: Com solo improvisado (escala G maior natural)
        Até o final
00:00 / 00:00
Outros vídeos desta música
Repetir
Outros vídeos desta música
Composição de Roger Rocha Moreira
Colaboração e revisão:
  • felipe vieira
75.790 exibições
    • ½ Tom
    • A
    • Bb
    • B
    • C
    • Db
    • D
    • Eb
    • E
    • F
    • F#
    • G
    • Ab
  • Adicionar à lista

    0 comentários

    Ver todos os comentários

    Entre para oCifra Club PRO

    Tenha acesso a benefícios exclusivos no App e no Site

    • Chega de anúncios

    • Prioridade de compra em lançamentos

    • Mais recursos no app do Afinador

    • Atendimento Prioritário

    • Descontos nos produtos Cifra Club

    • Ajude a produzir mais conteúdo

    00:00 / 00:00
    Capítulos
    • Início
    • Acordes da introdução
    • Tocando introdução
    • Ritmo
    • Acordes da base do solo
    • Tocando base do solo
    • Acordes da primeira parte
    • Tocando primeira parte
    • Acordes do refrão
    • Tocando refrão
    • Encerramento

    Cifra Club Pro

    Aproveite o Cifra Club com benefícios exclusivos e sem anúncios
    Cifra Club Pro
    Aproveite o Cifra Club com benefícios exclusivos e sem anúncios
    OK