Cifra Club

Mais Uma Vez

Under Line

Cifra: Principal (violão e guitarra)
Tom: E
(intro) E C#m B A

E                          C#m
Tudo bem, eu não quis acreditar
                          B
No que os meus olhos enxergaram
    A
Em você
E                 C#m
Sei que nada vai voltar agora
            B              A
E chegou a hora de dizer adeus

E
Só mais uma vez , escute o que eu vou falar
C#m
Quando eu te encontrei , eu nunca quis te magoar
B                                        A
E mesmo assim é com você que eu queria estar

E                          C#m
Tudo bem, eu não quis acreditar
                           B
No que os meus olhos enxergaram
   A
Em você
E                  C#m
Sei que nada vai voltar agora
             B             A
E chegou a hora de dizer adeus

E
Só mais uma vez , escute o que eu vou falar
C#m
Quando eu te encontrei , eu nunca quis te magoar
B                                        A
E mesmo assim é com você que eu queria estar
(2x)

(solo do inicio e do refrão)
E|-0000000075---
B|--------------
G|--------------
D|--------------   e vai repetindo até acabar
A|--------------
E|--------------

(solo)
E|-0-0-0-0-0-0-0-0-0-0-0-0-0-0-0--0-----------------------------------------
B|-5-5-5-5-5-5-5-5-7-7-7-7-9-9-10-10----------------------------------------
G|--------------------------------------------------------------------------
D|--------------------------------------------------------------------------
A|--------------------------------------------------------------------------
E|--------------------------------------------------------------------------

E|-0-0-0-0-0-0-0-0-0-0-0-0-0-0-0--0-----------------------------------------
B|-2-2-2-2-2-2-2-2-7-7-7-7-9-9-10-10----------------------------------------
G|--------------------------------------------------------------------------
D|--------------------------------------------------------------------------
A|--------------------------------------------------------------------------
E|--------------------------------------------------------------------------

E|-0-0-0-0-0-0-0-0-0-0-0-0-0-0-0-0-0--0--0--0--0--0--0--0--0-0---0-0---------
B|-7-7-7-7-7-7-7-5-7-7-7-7-9-9-9-9-10-10-10-10-10-10-10-10-1010--1010--------
G|---------------------------------------------------------------------------
D|---------------------------------------------------------------------------
A|---------------------------------------------------------------------------
E|---------------------------------------------------------------------------
exibições 38.888
Acordes para:
    Composição: Under Line Colaboração e revisão:

    0 comentários

    mostrar mais comentários

    Conseguiu tocar?

    1 tocaram 0 ainda não

    Grave um vídeo tocando Mais Uma Vez e mande pra gente!

    00:00 / 00:00
    outros vídeos desta música
    repetir qualidade Automático
    Outros vídeos desta música
    00:00 / 00:00
    Automático
    OK