Cifra Club

Safe To Say

Valencia

Cifra: Principal (violão e guitarra)
tom: D
(intro)

E|-------------------------------------------|
B|-------------------------------------------|
G|11--11-11-11---9---9--9--9----9h11-11-11---|
D|0---0--0--0----0---0--0--0----0----0--0----|
A|x---x--x--x----x---x--x--x----x----x--x----|
E|10--10-10-10---10--10-10-10---10---10-10---|

E|-------------------------|
B|-------------------------|
G|4--4-4-4---2--2-2-2--2---|
D|0--0-0-0---0--0-0-0--0---|
A|x--x-x-x---x--x-x-x--x---|
E|3--3-3-3---3--3-3-3--3---|

E|-------------------------------------------|
B|-------------------------------------------|
G|11--11-11-11---9---9--9--9----9h11-11-11---|
D|0---0--0--0----0---0--0--0----0----0--0----|
A|x---x--x--x----x---x--x--x----x----x--x----|
E|10--10-10-10---10--10-10-10---10---10-10---|

E|--------------------------------|
B|--------------------------------|
G|7--7-7-7---6--6-6-6---6h7-7-7---|
D|0--0-0-0---0--0-0-0---0---0-0---|
A|x--x-x-x---x--x-x-x---x---x-x---|
E|7--7-7-7---7--7-7-7---7---7-7---|

(repeat intro)

E|--------------|
B|--------------|
G|2~---2-2-2~---|
D|0~---0-0-0~---|
A|x----x-x-x----|
E|3~---3-3-3~---|

(verse)
               D5
We watched the sunset
                               Gsus2
And we told ourselves to never forget
                               D5
Just how good it felt to be surrounded
                                Gsus2
By a town that we knew like the back of our hands

         B5   A5            G5
We felt alive, home for the very first time.

(chorus)
E|-------------------------------------------|
B|-------------------------------------------|
G|11--11-11-11---9---9--9--9----9h11-11-11---|
D|0---0--0--0----0---0--0--0----0----0--0----|
A|x---x--x--x----x---x--x--x----x----x--x----|
E|10--10-10-10---10--10-10-10---10---10-10---|

E|-------------------------|
B|-------------------------|
G|4--4-4-4---2--2-2-2--2---|
D|0--0-0-0---0--0-0-0--0---| x3
A|x--x-x-x---x--x-x-x--x---|
E|3--3-3-3---3--3-3-3--3---|

E|-------------------------------------------|
B|-------------------------------------------|
G|11--11-11-11---9---9--9--9----9h11-11-11---|
D|0---0--0--0----0---0--0--0----0----0--0----|
A|x---x--x--x----x---x--x--x----x----x--x----|
E|10--10-10-10---10--10-10-10---10---10-10---|

E|--------------------------------|
B|--------------------------------|
G|7--7-7-7---6--6-6-6---6h7-7-7---|
D|0--0-0-0---0--0-0-0---0---0-0---|
A|x--x-x-x---x--x-x-x---x---x-x---|
E|7--7-7-7---7--7-7-7---7---7-7---|

(post-chorus)
D5     A       G5                    D5       A     G5
Oh- oh oh- ohh    Oh- oh-oh oh-oh oh    Oh oh-oh oh oh

(verse)
            D5
It's been a year now
                           Gsus2
But I still appreciate the sundown
                                  D5
It reminds me somehow things will work out
                                Gsus2
And I'll fall to your arms just like I'd always do

           B5   A5          G5                      B5   A5
It felt so good, it was the very first time I felt alive
          G5
Yeah, so alive

(intro/chorus 2x)
(post-chorus 2x)

(bridge)  D5 G5  D/F#  G5

(Or play this...)
E|----10~-----------10~-------------10~-----------10~---------|
B|7h8-----8p7h8-7h8-----8p7h8---7h8-----8p7h8-7h8-----8p7h8---|
G|7-------------7---------------0-------------0---------------|
D|0-------------0---------------0-------------0---------------|
A|------------------------------------------------------------|
E|------------------------------------------------------------|

E|----10~-----------10~-------------10~-----------10~---------|
B|7h8-----8p7h8-7h8-----8p7h8---7h8-----8p7h8-7h8-----8p7h8---|
G|0-------------0---------------0-------------0---------------|
D|x-------------x---------------0-------------0---------------|
A|9-------------9---------------------------------------------|
E|------------------------------------------------------------|

D5
If I could sing this out loud I'd scream it to the clouds
G5
And everyone in this town would know what I'm about
B5
I'd rather die than feel this pain take me over again
G5
It's so hard to let you go

D5     G5     D5     G5
D5     G5     B5     G5
Is it safe to say?

( D5     G5     D5     G5 )

(outro)
      D5                 G5
Is it safe to say in the morning you'll come back
                D5
And things will be the same?
       G5                                  D5
'Cause since the day you left you know I've had a hard time
      G5                      D5
And I want you to know if you hear these words
G5
Please just come back?

D5     A       G5                    D5       A     G5
Oh- oh oh- ohh    Oh- oh-oh oh-oh oh    Oh oh-oh oh oh

| PM palm mute
| /  slide up
| \  slide down
| h  hammer-on
| p  pull-off
| ~  let ring
| b  bend
| *  substitute
| x  mute note
| +  harmonic
00:00 / 00:00
Outros vídeos desta música
Repetir
Outros vídeos desta música
Composição de Valencia
Colaboração e revisão:
  • Élison Duarte
169 exibições
    • ½ Tom
    • A
    • Bb
    • B
    • C
    • Db
    • D
    • Eb
    • E
    • F
    • F#
    • G
    • Ab
  • Adicionar à lista

    0 comentários

    Ver todos os comentários

    Entre para oCifra Club PRO

    Tenha acesso a benefícios exclusivos no App e no Site

    • Chega de anúncios

    • Prioridade de compra em lançamentos

    • Mais recursos no app do Afinador

    • Atendimento Prioritário

    • Descontos nos produtos Cifra Club

    • Ajude a produzir mais conteúdo

    00:00 / 00:00

    Cifra Club Pro

    Aproveite o Cifra Club com benefícios exclusivos e sem anúncios
    Cifra Club Pro
    Aproveite o Cifra Club com benefícios exclusivos e sem anúncios
    OK