Cifra Club

Aprenda

Três

Valentin

Cifra: Principal (violão e guitarra)
tom: C
Intro base: G  Em  C  Am
 
Riff intro:
E|---------------------------------------------|
B|---------------------------------------------|
G|---------------------------------------------|
D|--9-------------------------9----------------|
A|-----5-5--3-----12p10-10-12----7----10-9-7-5-|
E|-------------/7------------------10----------|

E|---------------------------------------------|
B|---------------------------------------------|
G|---------------------------------------------|
D|--9-------------------------7h9--------------|
A|-----5-5--3-----12p10-10-10----7----10-9-7-5-|
E|-------------/7------------------10----------|

  G                           Em
Mantidas em silêncio as palavras entre seus lábios
C                                  Am
Segredos gritados ao vento quando ninguém pode ouvir
G                                     Em
No primeiro gole de café pela manhã a satisfação de um novo dia
C                       Am
As seis da tarde o amargor gelado da bebida fria

(Base): G Em C Am

Riff:

E|---------------------------------------------|
B|---------------------------------------------|
G|---------------------------------------------|
D|--9-------------------------9----------------|
A|-----5-5--3-----12p10-10-12----7----10-9-7-5-|
E|-------------/7------------------10----------|

E|---------------------------------------------|
B|---------------------------------------------|
G|---------------------------------------------|
D|--9-------------------------7h9--------------|
A|-----5-5--3-----12p10-10-10----7----10-9-7-5-|
E|-------------/7------------------10----------|

G                             Em
Quando sorri assim sem motivo na brisa da tarde
C                                Am
Expõe tão delicadamente o meu desespero, covardia
G                                      Em                          C
Ainda ei de aprender em insistir e afastar e saber dizer um não ao menos
                   Am              Em     C
Mas enquanto você aqui estiver, me encanta
           Em      C            Em
E não quero aprender a desacreditar
                         C                              Em
E se ninguém puder entender vislumbrando a gente vai estar   
                   C                               Em
De olhos aberto enxergar o que poucos conseguem ver 
                          C                            (G Em C Am)
Que a gente inventa o que é e precisa aprender a sentir.

E|---------------------------------------------|
B|---------------------------------------------|
G|---------------------------------------------|
D|--9-------------------------9----------------|
A|-----5-5--3-----12p10-10-12----7----10-9-7-5-|
E|-------------/7------------------10----------|

E|----------------------------------------------|
B|----------------------------------------------|
G|----------------------------------------------|
D|--9-------------------------7h9---------------|
A|-----5-5--3-----12p10-10-10----7----10-9-7-5--|
E|-------------/7------------------10----------7|

E|---------------------------------------------------------------|
B|---------------------------------------------------------------|
G|---------------------------------------------------------------|
D|------------------------------------------7-9-7------------7-9-|
A|--------------------0h2-2-3--2-3-5--7-9-7-------10-9h10-10-----|
E|--7p5-5p3-1h3~--3h5--------------------------------------------|

E|--------------------------------------------------|
B|--------------------------------------------------|
G|--------------------------------------------------|
D|--------------------------------------------------|
A|--------------------------------------------------|
E|--3-2-0-2-3-5-7--8-8-5-8-8h10/12-12-10-8-7-8-7-5-3|
Composição de Érico Junqueira (valentin)
Colaboração e revisão:
  • Gustavo Silva
1.940 exibições
    • ½ Tom
    • A
    • Bb
    • B
    • C
    • Db
    • D
    • Eb
    • E
    • F
    • F#
    • G
    • Ab
  • Adicionar à lista

    0 comentários

    Ver todos os comentários

    Conseguiu tocar?

    5 Tocaram 0 Ainda não

    Grave um vídeo tocando Três e nos envie!

    00:00 / 00:00
    Outros vídeos desta música
    Repetir Qualidade Automático
    Outros vídeos desta música
    00:00 / 00:00
    Automático

    Cifra Club Pro

    Aproveite o Cifra Club com benefícios exclusivos e sem anúncios
    Cifra Club Pro
    Aproveite o Cifra Club com benefícios exclusivos e sem anúncios
    OK