Cifra Club

Aprenda

Don't Tell Me

Van Halen

Cifra: Principal (violão e guitarra)
tom: A
[Intro]

    Gtr I
    PM--------------------------------------------------|
E|------------------|------------------|-----------------|
B|o-----------------|-----------------o|-----------------|
G|------------------|------------------|-----------------|
D|------------------|------------------|-----------------|
A|o-----------------|-----------------o|-----------------|
D|--4-4-4-4-4-4-4-4-|-4-0-0-0-0-0-2-2--|-4-0-0-0-0-0-2-2-|

[Primeira Parte]

    PM------------------------------|
                                       4x
E|------------------|------------------|-2--x-2----2-2-|
B|o-----------------|-----------------o|-2--x-2----2-2-|
G|------------------|------------------|---------------|
D|------------------|------------------|-4----4----4-4-|
A|o-----------------|-----------------o|-4----4--x-4-4-|
D|--4-4-4-4-4-4-4-4-|-4-0-0-0-0-0-2-2--|---------------|

      PM-|      PM-|
E|-------------------------|-----x-2---x-2-2-|-----------------|
B|-----------3---------3-3-|-------2---x-2-2-|-3---------------|
G|-2---------2---------2-2-|-----------------|-2-x-x-----------|
D|----0--0-----0---0---0-0-|-4-x---4-----4-4-|-0-x-x-x-2-2-----|
A|-------------------------|-4-x---4-----4-4-|-------x-0-0-2-2-|
D|-------------------------|---------x-------|-------------2-2-|

                         PM
E|-2---x-2-----2-2-|------------------|----x-2-x-x-2-2-|---0-0-0-0-0-0---|
B|-2-----2-----2-2-|-3------3-x-x-3-3-|-2----2-x-x-2-2-|---0-0-0-0-0-0---|
G|-----------------|-2------2-x-x-2-2-|-2----2-----2-2-|---2-2-2-2-2-2---|
D|-4-----4---x-4-4-|-0------0-----0-0-|-4----4-----4-4-|---2-2-2-2-2-2-0-|
A|-4-x---4-x-x-4-4-|------------------|-4----4-----4-4-|-----------------|
D|-----------------|------------------|----------------|-2---------------|

[Refrão]

E|------------|-------3-(3)-2h3p2p0---|--------------|
B|-3----------|---------------------3-|--------------|
G|-2----------|-----------------------|-2--------2-2-|
D|-0----------|-----------------------|-2--------2-2-|
A|-----0-0----|--0--------------------|-0---0-0--0-0-|
D|-----0-0----|--0--------------------|--------------|

  Gtr II
E|------------|-----------------------|--------------|
B|------------|-----------------------|--------------|
G|-7----------|-(7)-------------------|-2------------|
D|-7----------|-(7)-------------------|-2------------|
A|-5----------|-(5)-------------------|-0------------|
D|------------|-----------------------|--------------|

    T T     T     T     T     T     T
E|--------------------------------------------|
B|--------------------------------------------|
G|----------------2(14)-2(14)-------------x-x-|
D|----2(14)-2(14)-------------2(14)-2(14)-x-x-|
A|-12-----------------------------------------|
D|--------------------------------------------|

E|--------------------------------------------|
B|--------------------------------------------|
G|--------------------------------------------|
D|--------------------------------------------|
A|--------------------------------------------|
D|--------------------------------------------|

E|--------------|-----5-(5)-3h5p3s2---|
B|-3------------|-------------------3-|
G|-2------------|---------------------|
D|-0------------|---------------------|
A|-----0-(0)----|-0-------------------|
D|-----0-(0)----|-0-------------------|

E|--------------|---------------------|
B|--------------|---------------------|
G|-7------------|---------------------|
D|-7------------|---------------------|
A|-5------------|---------------------|
D|--------------|---------------------|

E|-------------------|-0----------------|
B|-----------------x-|---0--------------|
G|-2--------2----x---|------------------|
D|-2--------2--x-----|------------------|
A|-0----(0)-0--------|------0--(0)--(0)-|
D|-------------------|------------------|

E|-------------------|-0----------------|
B|-------------------|-0----------------|
G|-2-----------------|-2----------------|
D|-2-----------------|-2----------------|
A|-0-----------------|-0----------------|
D|-------------------|------------------|

[Segunda Parte]

   PM----------|
E|-----------2---0-|----------------|
B|-------2-----2---|-3--------------|
G|-----2---2-------|---2------------|
D|---4-------------|------4-0-------|
A|-4---------------|----------0-2-4-|
D|-----------------|----------------|

   PM----------|                          PM-----------|
E|-----------2---0-|-(0)---------------|-------------2---0-|----------------|
B|-------2-----2---|-----3-------------|---------2-----2---|-3--------------|
G|---2-----2-------|-------2-----------|-----2-----2-------|---2------------|
D|-4---4-----------|---------4-0-------|-(4)---4-----------|------4-0-------|
A|-----------------|-------------0-2-4-|-------------------|----------0-2-4-|
D|-----------------|-------------------|-------------------|----------------|

    PM-----------|
E|-------------2---0-|-(0)---------------|-2--x-2----2-2-|
B|---------2-----2---|-----3-------------|-2--x-2----2-2-|
G|-----2-----2-------|-------2-----------|---------------|
D|-(4)---4-----------|---------4-0-------|-4----4----4-4-|
A|-------------------|-------------0-2-4-|-4----4--x-4-4-|
D|-------------------|-------------------|---------------|

      PM-|      PM-|
E|-------------------------|-----x-2---x-2-2-|-----------------|
B|-----------3---------3-3-|-------2---x-2-2-|-3---------------|
G|-2---------2---------2-2-|-----------------|-2-x-x-----------|
D|---0---0-----0---0---0-0-|-4-x---4-----4-4-|-0-x-x-x-2-2-----|
A|-------------------------|-4-x---4-----4-4-|-------x-0-0-2-2-|
D|-------------------------|---------x-------|-------------2-2-|

                         PM
E|-2---x-2-----2-2-|------------------|----x-2-x-x-2-2-|----0-0--0-0--0-0----|
B|-2-----2-----2-2-|-3------3-x-x-3-3-|-2----2-x-x-2-2-|----0-0--0-0--0-0----|
G|-----------------|-2------2-x-x-2-2-|-2----2-----2-2-|----2-2--2-2--2-2----|
D|-4-----4---x-4-4-|-0------0-----0-0-|-4----4-----4-4-|----2-2--2-2--2-2--0-|
A|-4-x---4-x-x-4-4-|------------------|-4----4-----4-4-|---------------------|
D|-----------------|------------------|----------------|-2-------------------|

 | Gtr II
E|-----------------|------------------|----------------|---------------------|
B|-----------------|------------------|----------------|---------------------|
G|-----------------|------------------|----------------|---------------------|
D|-----------------|------------------|----------------|---------------------|
A|-----------------|------------------|----------------|---------------------|
D|-----------------|------------------|----------------|-x\---x\---x\---x\---|

[Refrão]

E|---------------|-----------------------------|
B|---------------|-----------------------------|
G|-7-----------7-|-7s11-11s14-14s=19-----19-19-|
D|---------------|-----------------------------|
A|-5-----------5-|-5s=9--9s12-12s=17-----17-17-|
D|---------------|-----------------------------|

E|---------------|----------3-(3)--2h3p2p=0----|
B|-3-------------|---------------------------3-|
G|-2-------------|-----------------------------|
D|-0-------------|-----------------------------|
A|-----0-(0)-----|-0---------------------------|
D|-----0-(0)-----|-0---------------------------|

                     T     T     T    T
E|-------------|---------------------------------|
B|-------------|---------------------------------|
G|-21----------|-----2(14)-2(14)-2(9)-2(9)-------|
D|-------------|---------------------------------|
A|-19---0-0----|-(0)-----------------------------|
D|-------------|---------------------------------|

E|-------------|---------------------------------|
B|-------------|---------------------------------|
G|--2----------|-----2b4---------0-------------x-|
D|--2----------|--2----------------------------x-|
A|--0----------|----------------------0----0-0---|
D|-------------|---------------------------------|

E|-------------|-----------------------------|
B|-------------|-----------------------------|
G|-7---------7-|-7s11-11s14-14s=16s====14-14-|
D|-------------|-----------------------------|
A|-5---------5-|-5s=9--9s12-12s=14s====12-12-|
D|-------------|-----------------------------|

E|-------------|----------5-(5)--3h5p3s=2----|
B|-3-----------|---------------------------3-|
G|-2-----------|-----------------------------|
D|-0-----------|-----------------------------|
A|-------------|-0---------------------------|
D|-----0-0-----|-0---------------------------|

                                      ~~~~~~~
E|--------------------|-----------------------------|
B|--------------------|-----------------------------|
G|-(14)------14s19s18-|-(18)--14s16s=14-(14)--14s16-|
D|--------------------|-----------------------------|
A|-(12)------12s17s16-|-(16)--12s14s=12-(12)--12s14-|
D|--------------------|-----------------------------|

                                  \7_________________
                   TP    TP
E|--------------------|-----------------------------|
B|--------------------|-----------------------------|
G|---2----------------|-----------------------------|
D|---2----------------|-----------------------------|
A|---0--------------0-|--(0)------------------------|
D|--------------------|-----------------------------|

E|---------------|----------------------|
B|---------------|----------------------|
G|-(16)----------|-(16)-----6-(6)-7s6-4-|
D|---------------|----------------------|
A|-(14)----------|-(14)---xS4-(4)-5s4-2-|
D|---------------|----------------------|
 |
E|---2-----------|----------------------|
B|---2-----------|----------------------|
G|---4-----------|----------------------|
D|---4-----------|----------------------|
A|---2-------2-2-|---2--2-2-2--2--2-2-2-|
D|---------------|----------------------|

                              ~~~~~~~~~~~
E|---------------------|-----------------------|
B|---------------------|-----------------------|
G|---------------------|-----[2]-----(2)-------|
D|---------------------|-----------------------|
A|-2h4p2-4-0--0--------|-(0)-------------------|
D|---------------------|-----------------------|
 |
E|---------------------|-----------------------|
B|---------------------|-----------------------|
G|-2---------(2)-------|------2-------2----6-6-|
D|-2---------(2)-------|------2-------2----6-6-|
A|-0---------(0)-0-0-0-|--0---0--0-0--0----4-4-|
D|---------------------|-----------------------|

   ~~~~~~~~~~~~~
E|----------------|-----------------|-0--------|-(0)----------------|
B|----------------|-----------------|-0--------|-(0)----------------|
G|----------------|-----------------|-5--------|-(5)----------------|
D|----------------|-----------------|-5--------|-(5)----------------|
A|-4--------(4)-4-|-(4)--4-4--------|-3--------|-(3)----------------|
D|----------------|-----------------|----------|--------------------|
 |
E|-4----4-4-----4-|--4-------4------|-0--------|-(0)---2-----2------|
B|-5----5-5-----5-|--5-----4-5-4----|-0--------|-(0)---2-2h3-2------|
G|-6----6---------|--------------6--|-5--------|-(5)-----------4p2--|
D|-6----6---------|-----------------|-5--------|-(5)----------------|
A|-4----4---------|-----------------|-3--------|-(3)----------------|
D|----------------|-----------------|----------|--------------------|

[Solo 1]

   ~          ~~~~~~~~                           ~~~~~~
E|--------------|------------------------|------------------------|
B|--------------|------------------------|------------------------|
G|-2------4s6p4-|-(4)--4s2h4p2s1h2p1h2p1-|-(1)------------------2-|
D|--------------|------------------------|-----2----------------2-|
A|--------------|------------------------|-------4-(4)----4-0-----|
D|--------------|------------------------|--------------------4---|

                                                            T
E|-----------------------------------------------|-----------------------0--h7-|
B|-----------------------------2-----------------|-----------------------------|
G|-(2)---------------------2---------4p2h4p2h4p2h|=4b6--(4)-9pb11r9-9b11-------|
D|-(2)-4p2h4p2h4p2h4p2h4p2---4---4p2-------------|-----------------------------|
A|-----------------------------------------------|-----------------------------|
D|-----------------------------------------------|-----------------------------|

    \1/ \1/                                                   \1/  \1/  \1/  \1/   \1/  \1/   \1/
            ~
E|-(7)--7p==5------------|-14-------14------------------------------------------------------------|
B|-----------------17b19-|----17b19----17b19-(17)pb19r17p14-(14)--17---14-------------------------|
G|-----------------------|--------------------------------------------------16---(16)--14---(14)--|
D|-----------------------|------------------------------------------------------------------------|
A|-----------------------|------------------------------------------------------------------------|
D|---------------x-------|------------------------------------------------------------------------|

                    ~~~~~~
E|--------------------------|
B|--------------------------|
G|-14\--4-2-4-4b6-2---------|
D|------------------4-(4)---|
A|--------------------------|
D|--------------------------|

   TP TP           ~~~~~~~~~
E|-5--7--9-(9)s12-12-|-(12)----------------------9-10-12p10h12p10p|
B|-------------------|------------------12-----x------------------|
G|-2--4--6-(6)s=9--9-|--(9)-9\-2s16\----12---x--------------------|
D|-------------------|---------------14----x----------------------|
A|-------------------|--------------------------------------------|
D|-------------------|--------------------------------------------|

E|-9------2-(2)-------------------------2-5b7--|
B|---10s3-2-(2)-[3]-4-3h5p3p2-----------2-5b7--|
G|----------------------------4b6-(4)b6--------|
D|---------------------------------------------|
A|---------------------------------------------|
D|---------------------------------------------|

          ~~~~~~~
E|-(5)b7-(5)b7-5----------------------|
B|-(5)b7-(5)b7-5-5--------------------|
G|-----------------4b6r=(4)-2h4p2h4p2h|
D|------------------------------------|
A|------------------------------------|
D|------------------------------------|

                                   ~~~~~~
E|---------------------------------------------|
B|-------------------------------------------x-|
G|-4p2h4p2h4p2b4-(2)b4-----[4]b6-2---------x---|
D|---------------------4-2---------4-(4)-x-----|
A|---------------------------------------------|
D|---------------------------------------------|

E|-14-----------------17---------17----17----17-|
B|----17b21==(17)b21=====17-(17)----17----17----|
G|----------------------------------------------|
D|----------------------------------------------|
A|----------------------------------------------|
D|----------------------------------------------|

                                                         ~~~~~~
E|-----------------------------------------|----------------------|
B|-17-(17)-17-(17)-17-(17)-17-(17)r17------|----------------------|
G|------------------------------------14\--|-4b6-4-2--------------|
D|-----------------------------------------|---------4-2-4-(4)----|
A|-----------------------------------------|----------------------|
D|-----------------------------------------|----------------------|

[Terceira Parte]

    Gtr I
    PM------------------------------|
                                       4x
E|------------------|------------------|-2--x-2----2-2-|
B|o-----------------|-----------------o|-2--x-2----2-2-|
G|------------------|------------------|---------------|
D|------------------|------------------|-4----4----4-4-|
A|o-----------------|-----------------o|-4----4--x-4-4-|
D|--4-4-4-4-4-4-4-4-|-4-0-0-0-0-0-2-2--|---------------|

      PM-|      PM-|
E|-------------------------|-----x-2---x-2-2-|-----------------|
B|-----------3---------3-3-|-------2---x-2-2-|-3---------------|
G|-2---------2---------2-2-|-----------------|-2-x-x-----------|
D|---0---0------0---0--0-0-|-4-x---4-----4-4-|-0-x-x-x-2-2-----|
A|-------------------------|-4-x---4-----4-4-|-------x-0-0-2-2-|
D|-------------------------|---------x-------|-------------2-2-|

                         PM
E|-2---x-2-----2-2-|------------------|----x-2-x-x-2-2-|----0-0--0-0--0-0----|
B|-2-----2-----2-2-|-3------3-x-x-3-3-|-2----2-x-x-2-2-|----0-0--0-0--0-0----|
G|-----------------|-2------2-x-x-2-2-|-2----2-----2-2-|----2-2--2-2--2-2----|
D|-4-----4---x-4-4-|-0---0-----0-0-|-4----4-----4-4-|----2-2--2-2--2-2--0-|
A|-4-x---4-x-x-4-4-|------------------|-4----4-----4-4-|---------------------|
D|-----------------|------------------|----------------|-2-------------------|

  Gtr II
E|-----------------|------------------|----------------|---------------------|
B|-----------------|------------------|----------------|---------------------|
G|-----------------|------------------|----------------|---------------------|
D|-----------------|------------------|----------------|---------------------|
A|-----------------|------------------|----------------|---------------------|
D|-----------------|------------------|----------------|-x\---x\---x\---x\---|

[Refrão]

E|-------------|-------------------------------|-------|
B|-------------|-------------------------------|-------|
G|-7-------7-7-|--7s=11-11s14-14s=19-----19s21-|-21----|
D|-------------|-------------------------------|-------|
A|-5-------5-5-|--5s==9--9s12-12s=17-----17s19-|-19----|
D|-------------|-------------------------------|-------|

E|-------------|------------3-(3)--2h3p2p=0----|-------|
B|-------------|-----------------------------3-|-------|
G|-------------|-------------------------------|-------|
D|-------------|-------------------------------|-------|
A|-0-----------|-(0)---------------------------|--0----|
D|-0-----------|-(0)---------------------------|-------|

E|------------------|---------------|------------------------------|
B|------------------|---------------|------------------------------|
G|-21---------------|-7---------7-7-|--7s=11-11s14-14s=16s====14---|
D|------------------|---------------|------------------------------|
A|-19----x\-x\--x\--|-5---------5-5-|--5s==9--9s12-12s=14s====12---|
D|------------------|---------------|------------------------------|

E|--0---------------|---------------|------------5-(5)--3h5p3s=2---|
B|----0-----0-------|-3-------------|----------------------------3-|
G|------------------|-2-------------|------------------------------|
D|------------------|-0-------------|------------------------------|
A|--0---------------|-----0-0-------|-(0)--------------------------|
D|------------------|-----0-0-------|-(0)--------------------------|

  Gtr III
E|------------------|---------------|------------------------------|
B|------------------|---------------|------------------------------|
G|------------------|---------------|------------------------------|
D|------------------|---------------|------------------------------|
A|--0---------------|---------------|------------------------------|
D|------------------|---------------|------------------------------|

                 TP
E|-----------|---------------------|------------|
B|-----------|---------------------|------------|
G|-14--------|-------------------x-|-7----------|
D|-----------|-------------------x-|------------|
A|-12--------|-S=========----------|-5----------|
D|-----------|---------------------|------------|
 |
E|-----------|---------------------|------------|
B|-----------|---------------------|-3----------|
G|--2--------|--(2)----------------|-2----------|
D|--2--------|--(2)----------------|-0----------|
A|--0--------|--(0)---x\-x\---x\---|-----0-0----|
D|-----------|---------------------|-----0-0----|

                                                      T  T    ~~~~
E|-----------------------------|-----------|-----------------------------|
B|-----------------------------|-----------|-----------------------------|
G|-7s11-11s14-14s=19-----19s21-|-21--------|----(2)-[11]-2(9)-2(7)-----x-|
D|-----------------------------|-----------|---------------------------x-|
A|-5s=9--9s12-12s=17-----17s19-|-19--------|-x\--------------------------|
D|-----------------------------|-----------|-----------------------------|

E|----------3-(3)--2h3p2p=0----|-----------|-----------------------------|
B|---------------------------3-|-----------|-----------------------------|
G|-----------------------------|-----------|-2----------------2----2-2---|
D|-----------------------------|-----------|-2----------------2----2-2---|
A|-0---------------------------|--0--------|-0----------------0----0-0---|
D|-0---------------------------|-----------|-----------------------------|

E|------------|----------------------------|--------------------|
B|------------|----------------------------|--------------------|
G|-7----------|-7s11-11s14-14s=16-------14-|-(14)------14s19s18-|
D|------------|----------------------------|--------------------|
A|-5----------|-5s=9--9s12-12s=14-------12-|-(12)------12s17s16-|
D|------------|----------------------------|--------------------|

E|------------|----------5-(5)--3h5p3p2----|---0--------------5-|
B|-3----------|--------------------------3-|------------------5-|
G|-2----------|----------------------------|------------------6-|
D|-0----------|----------------------------|--------------------|
A|-----0-0----|-0--------------------------|--------------------|
D|-----0-0----|-0--------------------------|--------------------|

E|------------------------|-----------|------------------------|
B|------------------------|-----------|------------------------|
G|-18---x-14-(14)---16-16-|-16--------|-(16)-------6s=7--------|
D|------------------------|-----------|------------------------|
A|-16---x-12-(12)---14-14-|-14--------|-(14)---14\-4s=5--------|
D|------------------------|-----------|------------------------|

                                                         ~
E|--5-5-5--5--(5)---------|--2--------|------------------------|
B|--5-5-5--5--(5)---------|--2--------|------------3-(3)-2-----|
G|--6-6-6--6--(6)----4--4-|--4--------|---------------------4--|
D|-------------------4--4-|--4--------|------------------------|
A|-------------------2--2-|--2--------|---2--2-----------------|
D|------------------------|-----------|------------------------|

E|-0----(0)-------|-------------------4-|-4--------------|
B|-0----(0)-----0-|-(0)----------0--4-4-|-4--------------|
G|-2----(2)-------|-----2---------------|-6--------------|
D|-2----(2)-------|-------2--(2)--------|-6--------------|
A|-0----(0)-0-0---|---------------------|-4--------------|
D|----------------|---------------------|----------------|

E|----------------|---------------------|----------------|
B|----------------|---------------------|----------------|
G|-2--------------|--2--------------6---|-6---6-6-6-6-6--|
D|-2--------------|--2--------------6---|-6---6-6-6-6-6--|
A|-0--------------|--0--------------4---|-4---4-4-4-4-4--|
D|----------------|---------------------|----------------|

                                                   PM
E|-4-------4-(4)------|-0--------|-0-----2-----2-----|
B|-4-----4h5-(5)-4----|-0--------|-0-----2-2h3-2-----|
G|-6----------------6-|-5--------|-5-------------4-2-|
D|-6------------------|-5--------|-5-----------------|
A|-4------------------|-3--------|-3-----------------|
D|--------------------|----------|-------------------|

E|--------------------|-0--------|-0--0\-------------|
B|--------------------|-0--------|-0--0\-------------|
G|-6-6-6---6-(6)------|-5--------|-5--5\-------------|
D|-6-6-6---6-(6)------|-5--------|-5--5\-------------|
A|-4-4-4---4-(4)------|-3--------|-3--3\-------------|
D|--------------------|----------|-------------------|

[Solo 2]
               ~~~~~~~~~~~~~
E|----------------------------------|
B|-------7----(7)----(7)------9-----|
G|-4b6---9b11-(9)b11-(9)b11--11b13==|
D|----------------------------------|
A|----------------------------------|
D|----------------------------------|

E|----------------------------2---2-2-------|------------------------------|
B|--(9)---9---------------------2h3-2-------|----------------------10------|
G|-(11)r(11)b13-(11)b13-(11)\---------4p(2)-|-4b6---/11b13-(11)b13-12b14---|
D|------------------------------------------|------------------------------|
A|------------------------------------------|------------------------------|
D|------------------------------------------|------------------------------|

     ~~~~~~~~~~~~~~                      ~~~
E|-----------------------2---2-2-------|---------------------------------|
B|-(10)----(10)----------2-2h3-2-------|---------------------------------|
G|-(12)b14-(12)b14-(12)\---------4p(2)-|-4b6---/9b11-(9)b11-12b14--11b13-|
D|-------------------------------------|---------------------------------|
A|-------------------------------------|---------------------------------|
D|-------------------------------------|---------------------------------|

E|-------------------------------------------------------|
B|----------------------------------------------17----17-|
G|-(11)b13-12b14--14b16-(14)b16-16b18==(16)b18=====16----|
D|-------------------------------------------------------|
A|-------------------------------------------------------|
D|-------------------------------------------------------|
                                                                            ~
E|---------------17-17-17-17-17-17-17-17-17--------|---------------------------|
B|----17r--------17-17-17-17-17-17-17-17-17-17-17--|-x-------------------------|
G|-16-----16b18==16-16-16-16-16-16-16-16-16-16-16r-|-x-14s2-(2)-4-2-4b6-4-2----|
D|-------------------------------------------------|------------------------4--|
A|-------------------------------------------------|---------------------------|
D|-------------------------------------------------|---------------------------|

E|---7-7s9-(9)-9-9-9s7-7-7-(7)-7-7-5s|=2-2-2-2-------2-----2-2---2------|
B|---5-5s7-(7)-7-7-7s5-5-5-(5)-5-5-5s|=2-2-2-2-----2---5b7-2-2-5---5b7r=|
G|-----------------------------------|---------4b6----------------------|
D|-x---------------------------------|----------------------------------|
A|-x-7-7s9-(9)-9-9-9s7-7-7-(7)-7-7---|----------------------------------|
D|-----------------------------------|----------------------------------|

E|---------2-----------2-------------2-------------2---------|
B|-(5)p2-----5p2-2-5p2---5p2---2-5p2---5p2---2h5p2---5p2---2-|
G|-------5-------------------4-------------4-------------5---|
D|-----------------------------------------------------------|
A|-----------------------------------------------------------|
D|-----------------------------------------------------------|

                                   ~       TP   TP   TP    TP     TP     TP
E|-----------------------------------x-x-|------------------------------------|
B|-----------2---------2-------------x-x-|-2----5----7-----9-----(9)----10----|
G|-5p4p2h4h5---5p2h4h5---5-2---4-2-------|-4b6--7b9--9b11-11b13-(11)b13-12b14-|
D|---------------------------4-----4-----|------------------------------------|
A|---------------------------------------|------------------------------------|
D|---------------------------------------|------------------------------------|

     TP     TP     TP     TP      TP    TP
E|-------------------------------------------|
B|-(10)----12-----14----(14)-----17----14----|
G|-(12)b14-14b16--16b18-(16)b18--16b18-16b18-|
D|-------------------------------------------|
A|-------------------------------------------|
D|-------------------------------------------|

     TP
E|-----------------------------------|--------------------------|
B|-(14)----17----14----17----19------|-22-22-22-22-22-22-22--22-|
G|-(16)b18-19b21-16b18-19b21-21b23===|=21-21-21-21-21-21-21r-21-|
D|-----------------------------------|--------------------------|
A|-----------------------------------|--------------------------|
D|-----------------------------------|--------------------------|
                  ~~~~~~~~~~~~~~~~~~~~~~~~~~~~~~~~~~~~~~~~~~~~~~~~~~~~
E|------------------------------------|-------------------------------|
B|-22-----22---------22-22-22-(22)-22-|-(22)-22-22-22-(22)-22-(22)-22-|
G|-21b23==21-21-(21)-21-21-21-(21)-21-|-(21)-21-21-21-(21)-21-(21)-21-|
D|------------------------------------|-------------------------------|
A|------------------------------------|-------------------------------|
D|------------------------------------|-------------------------------|

E|-----------------------------|--------------|
B|-22-22-(22)-22---------------|--------------|
G|-21-21-(21)-21-21r\--2-4-[2]-|-4b6-4-2------|
D|-----------------------------|---------4----|
A|-----------------------------|--------------|
D|-----------------------------|--------------|

[Final]
                                                                   PM--------|
E|-2--x-2---------|----------------|-2----2---------2-|------------------------|
B|-2--x-2---------|-3--x-3-x-x-3-3-|-2----2---------2-|-3-3--------------------|
G|----------------|-2--x-2-x-x-2-2-|------------------|-2-2--------------------|
D|-4----------4-4-|-0----0-----0-0-|-4--x-4----4-4----|-0-0--x-x-x-------------|
A|-4------x-x-4-4-|----------------|-4--x-4-x-----4-4-|------x-x-x-4----------|
D|----------------|----------------|------------------|------x-x-x---0-0-2-2-2-|
Composição de Eddie Van Halen / Michael Anthony / Sammy Hagar
Colaboração e revisão:
  • Lucas Kappaun
3.422 exibições
    • ½ Tom
    • A
    • Bb
    • B
    • C
    • Db
    • D
    • Eb
    • E
    • F
    • F#
    • G
    • Ab
  • Adicionar à lista

    0 comentários

    Ver todos os comentários

    Conseguiu tocar?

    0 Tocaram 0 Ainda não

    Grave um vídeo tocando Don't Tell Me e nos envie!

    00:00 / 00:00
    Outros vídeos desta música
    Repetir Qualidade Automático
    Outros vídeos desta música
    00:00 / 00:00
    Automático

    Cifra Club Pro

    Aproveite o Cifra Club com benefícios exclusivos e sem anúncios
    Cifra Club Pro
    Aproveite o Cifra Club com benefícios exclusivos e sem anúncios
    OK