Cifra Club

Aprenda

Broken Heart

Eddie Vedder

Cifra: Principal (violão e guitarra)
Tom: G
  G       D7    G        G7
Don't mind me, just let me be
  C      Cm       G
My eyes so far away
  G     D7      G    G7
I don't need no sympathy
   A               F#
The word gets overplayed
  C       D        G       Em
I'm alright, it's just tonight
  C       D        G
I can't play the part
  C       D        G       Em
I'm alright, it's alright
     F#
It's just one broken heart
 G       D7    G        G7
Don't have eyes for the world outside
C      Cm       G
They're closed and turned within
 G     D7      G    G7
Trying to find the light inside
  A                  F#
It's lit, but growing dim
  C       D        G       Em
I'm alright, it's just tonight
 C       D        G
I can't play the part
 C       D        G       Em
I'm alright, it's alright
     F#
It's just one broken heart


Verse
A|-2----2----3----3----2----2----2----2----3----3----3----3----2----2----0----0/2---|
E|--3----3----2----2----3----3----1----1----0----0----3----3----3----3----3----3----|
C|---2----2----2----2----2----2----2----2----0----0----3----3----2----2----2----2---|
G|----------------------------------------------------------------------------------|

A|-2----2----3----3----2----2----2----2----0----0----2----2----0----0----0----0-----|
E|--3----3----2----2----3----3----1----1----0----0----0----0----2----2----2----2----|
C|---2----2----2----2----2----2----2----2----1----1----1----1----0----0----0----0---|
G|-----------------------------------------------------------------------0----2-----|

Chorus
A|-3----3----0----0----2----2----2----2---------------------------------------------|
E|--0----0----2----2----3----3----3----3--------------------------------------------|
C|---0----0----2----2----2----2----4----4-------------------------------------------|
G|----------------------------------------------------------------------------------|

A|-3----3----0----0----2----2----3----5---------------------------------------------|
E|--0----0----2----2----3----3----3----3--------------------------------------------|
C|---0----0----2----2----2----2----2----2-------------------------------------------|
G|----------------------------------------------------------------------------------|

A|-3----3----0----0----2----2----2----2---------------------------------------------|
E|--0----0----2----2----3----3----3----3--------------------------------------------|
C|---0----0----2----2----2----2----4----4-------------------------------------------|
G|----------------------------------------------------------------------------------|

A|-0----0----0----0-----------------------------------------------------------------|
E|--2----2----2----2----------------------------------------------------------------|
C|---0----0----0----0---------------------------------------------------------------|
G|----------------------------------------------------------------------------------|
Colaboração e revisão:
  • João Lima
1.076 exibições
    • ½ Tom
    • A
    • Bb
    • B
    • C
    • Db
    • D
    • Eb
    • E
    • F
    • F#
    • G
    • Ab
  • Adicionar à lista

    0 comentários

    Mostrar mais comentários

    Conseguiu tocar?

    0 Tocaram 0 Ainda não

    Grave um vídeo tocando Broken Heart e mande pra gente!

    00:00 / 00:00
    outros vídeos desta música
    repetir qualidade Automático
    Outros vídeos desta música
    00:00 / 00:00
    Automático

    Cifra Club Pro

    Aproveite o Cifra Club com benefícios exclusivos e sem anúncios
    Cifra Club Pro
    Aproveite o Cifra Club com benefícios exclusivos e sem anúncios
    OK