Cifra Club

Aprenda

Long Nights

Eddie Vedder

Cifra: Principal (violão e guitarra)
Tom: F
Intro:   Gm
Gm
Have no fear
              F
For when I'm alone
                                C
I'll be better off than I was before
     Gm
I've got this light
         F
I'll be around to grow
Who I was before
   C
I cannot recall
Bb              Am             Dm
Long nights allow me to feel...
                G7
I'm falling...I am falling
Bb               Am
The lights go out
Dm
Let me feel...I'm falling
G7            Bb                 Am          Dm (see Rhy Fig 1)
I am falling safely to... the ground...Ah
     Gm                             F
I'll take this soul that's inside me now
Like a brand new friend
     C
I'll forever know
     Gm
I've got this light
           F
And the will to show
                                C
I will always be better than before
Bb               Am               Dm
Long nights allow me to feel...
               G7
I'm falling...I am falling
Bb             Am
The lights go out
Dm
Let me feel...I'm falling
G7             Bb              Am
I am falling safely to... the ground


Padrão de Dedilhado dos acordes:


   Gm                              F
E|------10--------------10------|------8--------------8------
B|----------11------11------11--|---------10------10-----10--
G|--12----------12--------------|--12---------12-------------
D|------------------------------|----------------------------
A|------------------------------|----------------------------
E|------------------------------|----------------------------


   C                               Bb
E|-------3---------------3------|------6--------------6------
B|-----------5-------5-------5--|----------6-------6------6--
G|---5-----------5--------------|----------------------------
D|------------------------------|---8----------8-------------
A|------------------------------|----------------------------
E|------------------------------|----------------------------


   Am                              Dm
E|-------5---------------5------|------5--------------5------
B|-----------5-------5-------5--|----------6-------6------6--
G|------------------------------|---7----------7-------------
D|---7-----------7--------------|----------------------------
A|------------------------------|----------------------------
E|------------------------------|----------------------------


   G7
E|-------7---------------7------|
B|-----------6-------6-------6--|
G|---7-----------7--------------|
D|------------------------------|
A|------------------------------|
E|------------------------------|
Composição de Eddie Vedder
Colaboração e revisão:
  • Luan Fakelmann
  • Rodrigo Ortolani
70.342 exibições
    • ½ Tom
    • A
    • Bb
    • B
    • C
    • Db
    • D
    • Eb
    • E
    • F
    • F#
    • G
    • Ab
  • Adicionar à lista

    0 comentários

    Mostrar mais comentários

    Conseguiu tocar?

    13 Tocaram 0 Ainda não

    Grave um vídeo tocando Long Nights e mande pra gente!

    00:00 / 00:00
    outros vídeos desta música
    repetir qualidade Automático
    Outros vídeos desta música
    00:00 / 00:00
    Automático

    Cifra Club Pro

    Aproveite o Cifra Club com benefícios exclusivos e sem anúncios
    7 dias grátis
    Cifra Club Pro
    Aproveite o Cifra Club com benefícios exclusivos e sem anúncios
    7 dias grátis
    OK