Notificações Amigos pendentes

      Eddie Vedder

      Society

      264.351 exibições
      Tom: D
      (Bm)
      Oh…..oh…. oh oh….oh oh
      
      D        A         D
      It's a mystery to me
      D                G                      A
      We have a greed with which we have agreed
              G                 A                    Bm
      And you think you have to want more than you need
      G                 A                Bm      (Bm)  (Bm)
      Until you have it all you won't be free
      
      Refrão 1:
         G                        D
      Society, you're a crazy breed
                        A             Bm      (Bm)  (Bm)
      I Hope you're not lonely without me
      
      D                             A                   D
      When you want more than you have You think you need
      D                               G                            A
      And when you think more than you want Your thoughts begin to bleed
      G            A                     Bm
      I think I need to find a bigger place
      G                                   A                      Bm      (Bm)
      Because when you have more than you think You need more space
      
      Refrão 2:
         G                        D
      Society, you're a crazy breed
                        A             Bm
      I Hope you're not lonely without me
        G                 D
      Society, crazy indeed
                      A               Bm       (Bm)  (Bm)
      Hope you're not lonely wi - thout me
      
      
      E|---------------------------------|
      B|----------------------------7----|
      G|-------7----7-7--9--9---7/9------|
      D|---7/9---------------------------|
      A|---------------------------------|
      E|---------------------------------|
      
      
      E|-------------------------------------|
      B|------7--10----10--10/12----12-10----|
      G|---7---------------------------------|
      D|-------------------------------------|
      A|-------------------------------------|
      E|-------------------------------------|
      
      
      E|-----------------------------------------------|
      B|------7--8----8--7----------7---7-7------------|
      G|---7-----------------9---7/9---------9/7-------|
      D|------------------------------------------9----|
      A|-----------------------------------------------|
      E|-----------------------------------------------|
      
      
      E|-------------------------------|
      B|-------------------------------|
      G|---------7--7-7h9-9-9--7-------|
      D|----7/9------------------9-----|
      A|-------------------------------|
      E|-------------------------------|
      
      
      E|--------------------------------------------------|
      B|---8----8---8-8/7-7---7---7-7---------------------|
      G|------------------------------9-7-9--9-9--7-------|
      D|---------------------------------------------9----|
      A|--------------------------------------------------|
      E|--------------------------------------------------|
      
      
      D                            A              D
      There's those thinking more less, less is more
      D                   G                    A
      But if less is more, how you keeping score?
      G                   A                         Bm
      Means for every point you make, your level drops
      G                    A              Bm           Bm
      Kinda like you're starting from the top   (And You can't do that...)
      
      Refrão 3:
          G                       D
      Society, you're a crazy breed
                       A             Bm
      Hope you're not lonely without me
          G               D
      Society, crazy indeed
                       A             Bm
      Hope you're not lonely without me
      
      Refrão 4:
         G                    D
      Society, have mercy on me
                      A               Bm
      Hope you're not angry if I disagree
         G                D
      Society, crazy indeed
                       A             Bm
      Hope you're not lonely without me
        Composição: Eddie VedderColaboração e revisão:
        • danfreitaz
        • Nicius
        • Perdiga
        • Roninho

        Comentários 20

        140 .
        • ronnie.blues ronnie.blues: Em 14/01/2015 14:50

          No CD está em Si menor (Bm), quando ele toca com Johnny Depp
          desce um tom e fica em Lá menor (Am) - simples assim.

        • TaKiTaDuRo TaKiTaDuRo: Em 17/07/2014 05:38

          E o solo está errado pq o Eddie não toca desse jeito. Este aki tá certo-> tabs.ultimate-guitarcom/e/eddie_vedder/society_solo_ver2_tab

          • roland roland: Em 30/05/2016 22:57

            tmb achei que faltava algo...

        • TaKiTaDuRo TaKiTaDuRo: Em 16/07/2014 15:27

          O tom está certo com o album, mas ao vivo o Eddie toca um tom abaixo, em C. Vejam o Eddie e o Johnny Depp tocando ao vivo: watch?v=hcgtTrMBM

        • Danilo Danilo: Em 24/06/2014 03:45

          Tá erradona. A cifra correta está no cifras ponto bê érre.

        • serginho serginho: Em 30/05/2014 15:31

          o ritmo é b b c b c

        • rogger.pereira rogger.pereira: Em 11/05/2014 08:56

          Ele toca em C , mais isso nao quer dizer que vc tenha que tocar tb, toque no tom que vc achar confortavel pra cantar, a musica esta certinha

        • facundo.bosich facundo.bosich: Em 21/02/2014 11:25

          el tema es 1/2 bajo

        • lukas.daniel.33 lukas.daniel.33: Em 12/01/2014 18:43

          qual o ritmo ?

        • danilodelyima danilodelyima: Em 02/01/2014 16:21

          Ele toca ao vivo em C! Só trocar ²

        140 cancelar

        conseguiu tocar?

        • •••

        covers

        Grave um vídeo tocando Society e mande pra gente!

        Ex.: http://www.youtube.com/watch?v=0IvSvIwGdwk
        ver covers de outras músicas »
        0:00 / 0:00

        Capítulos

          1 versão de gaita exibições contribuição e correção
          1 versão de Guitar Proformatodownloadscontribuição
          play/pausefechar subir/descer velocidade
          6ª corda E5ª corda A4ª corda D3ª corda G2ª corda B1ª corda E
            acordes
            publicidade
            fechar
            ok