Cifra Club

Society

Eddie Vedder

Cifra: Principal (violão e guitarra)
tom: Bm
[Intro] Bm

[Primeira Parte]

D       A          D
It's a mystery to me
                 G                     A
We have a greed with which we have agreed
          G                A              Bm
And you think you have to want more than yo need
G                 A              Bm    
Until you have it all you won't be free

[Refrão]

    G                     D
Society, you're a crazy breed
                   A              Bm     
I Hope you're not lonely without me

[Segunda Parte]

  D                          A                  D
When you want more than you have You think you need
                                  G                    A         
And when you think more than you want Your thoughts begin to bleed
G          A                      Bm
I think I need to find a bigger place
                  G                   A                   Bm
Because when you have more than you think You need more space

[Refrão]

    G                     D
Society, you're a crazy breed
                   A              Bm
I Hope you're not lonely without me
    G              D
Society, crazy indeed
                 A         Bm    
Hope you're not lonely without me

[Solo] D  A  D  G  A  
       G  A  Bm  G  A  Bm  
       G  D  A  Bm

E|----------------------------------------------------|
B|-----------------------7-----7-10---10-10/12--12-10-|
G|-----7---7-7-9-9---7h9-----7------------------------|
D|-7h9------------------------------------------------|
A|----------------------------------------------------|
E|----------------------------------------------------|

E|----------------------------------------------------|
B|---7-8--8-8-7--------7--7-7-------------------------|
G|-7------------9--7-9--------9-7---------7-7-9b-9-9--|
D|--------------------------------9---7h9-------------|
A|----------------------------------------------------|
E|----------------------------------------------------|

E|----------------------------------------------------|
B|--------8-8---8-8--8-8p7---7-7----------------------|
G|-7-----------------------------9-7-9----9-9b-7------|
D|---9-------------------------------------------9----|
A|----------------------------------------------------|
E|----------------------------------------------------|

[Terceira Parte]

          D             A                  D
There's those thinking more less, less is more
                      G                   A   
But if less is more, how you're keeping score?
          G                A                 Bm   
Means for every point you make, your level drops
G                    A                Bm    
 Kinda like you're starting from the top (And You can't do that)

[Refrão]

    G                     D
Society, you're a crazy breed
                   A              Bm
I Hope you're not lonely without me
    G              D
Society, crazy indeed
                 A         Bm    
Hope you're not lonely without me

    G               D
Society, have mercy on me
                  A                Bm
I hope you're not angry if I disagree
    G               D
Society, crazy and deep
                   A         Bm    
I hope you're not lonely without me
00:00 / 00:00
Outros vídeos desta música
Repetir
Outros vídeos desta música
Composição de Jerry Hannan
458.259 exibições
    • ½ Tom
    • Am
    • Bbm
    • Bm
    • Cm
    • C#m
    • Dm
    • Ebm
    • Em
    • Fm
    • F#m
    • Gm
    • G#m
  • Adicionar à lista

    0 comentários

    Ver todos os comentários

    Conseguiu tocar?

    112 Tocaram 6 Ainda não

    Grave um vídeo tocando Society e nos envie!

    00:00 / 00:00

    Cifra Club Pro

    Aproveite o Cifra Club com benefícios exclusivos e sem anúncios
    Cifra Club Pro
    Aproveite o Cifra Club com benefícios exclusivos e sem anúncios
    OK