Cifra Club

Furious Love

Veridia

Cifra: Principal (violão e guitarra)
Selo Cifra Club: esta cifra foi revisada para atender aos critérios oficiais da nossa Equipe de Qualidade.
tom: Em
E|E|-------------------------------------------------------------------------------||
                             FURIOUS LOVE - Veridia
E|E|-------------------------------------------------------------------------------||
Tabbed by: theefires168

Tuning: Drop D

Hello everyone, this is my favorite song from this amazing band. To me this sounds 100% correct.
Enjoy and God Bless :)

Verse
E|---------------------------------------------------------------------------|
B|---------------------------------------------------------------------------|
G|---------------------------------------------------------------------------|
D|---------------------------------------------------------------------------| 2x
A|------------------2222222222222222-5555555555555555-0000000000000000-------|
E|-2222222222222222----------------------------------------------------------|

(A love like that won't last long)
E|---------------------------------------------------------------------------|
B|---------------------------------------------------------------------------|
G|---------------------------------4-4-4-4-4-4-4-4---------------------------|
D|-5-5-5-5-5-5-5-5-7-7-7-7-7-7-7-7-4-4-4-4-4-4-4-4---------------------------|
A|-5-5-5-5-5-5-5-5-7-7-7-7-7-7-7-7-2-2-2-2-2-2-2-2---------------------------|
E|-5-5-5-5-5-5-5-5-7-7-7-7-7-7-7-7------------------10/----------------------|

Chorus
E|---------------------------------------------------------------------------|
B|---------------------------------------------------------------------------|
G|-----------------4-4-4-4-4-4-4-4-7-7-7-7-7-7-7-7---------------------------|
D|-5-5-5-5-5-5-5-5-4-4-4-4-4-4-4-4-7-7-7-7-7-7-7-7-7-7-7-7-7-7-7-7-----------|
A|-5-5-5-5-5-5-5-5-2-2-2-2-2-2-2-2-5-5-5-5-5-5-5-5-7-7-7-7-7-7-7-7-----------|
E|-5-5-5-5-5-5-5-5---------------------------------7-7-7-7-7-7-7-7-----------|

E|---------------------------------------------------------------------------|
B|---------------------------------------------------------------------------|
G|-----------------4-4-4-4-4-4-4-4-7-7-7-7-7-7-7-7---------------------------|
D|-5-5-5-5-5-5-5-5-4-4-4-4-4-4-4-4-7-7-7-7-7-7-7-7-5-5-5-5-5-5-5-5-----------|
A|-5-5-5-5-5-5-5-5-2-2-2-2-2-2-2-2-5-5-5-5-5-5-5-5-5-5-5-5-5-5-5-5-----------|
E|-5-5-5-5-5-5-5-5---------------------------------5-5-5-5-5-5-5-5-----------|

E|---------------------------------------------------------------------------|
B|---------------------------------------------------------------------------|
G|-4-4-4-4-4-4-4-4-7-7-7-7-7-7-7-7-------------------------------------------|
D|-4-4-4-4-4-4-4-4-7-7-7-7-7-7-7-7-7-7-7-7-7-7-7-7-2-2-2-2-2-2-2-2-----------|
A|-2-2-2-2-2-2-2-2-5-5-5-5-5-5-5-5-7-7-7-7-7-7-7-7-2-2-2-2-2-2-2-2-----------|
E|---------------------------------7-7-7-7-7-7-7-7-2-2-2-2-2-2-2-2-10/-------|
 
Verse 2
E|---------------------------------------------------------------------------|
B|---------------------------------------------------------------------------|
G|---------------------------------------------------------------------------|
D|---------------------------------------------------------------------------|
A|-2222222222222222-5555555555555555-0000000000000000------------------------|
E|---------------------------------------------------------------------------|

E|---------------------------------------------------------------------------|
B|---------------------------------------------------------------------------|
G|---------------------------------------------------------------------------|
D|---------------------------------------------------------------------------|
A|------------------2222222222222222-5555555555555555-0000000000000000-------|
E|-2222222222222222----------------------------------------------------------|

A love like that is all I want
E|---------------------------------------------------------------------------|
B|---------------------------------------------------------------------------|
G|---------------------------------4-4-4-4-4-4-4-4-7-7-7-7-7-7-7-7-----------|
D|-5-5-5-5-5-5-5-5-7-7-7-7-7-7-7-7-4-4-4-4-4-4-4-4-7-7-7-7-7-7-7-7-----------|
A|-5-5-5-5-5-5-5-5-7-7-7-7-7-7-7-7-2-2-2-2-2-2-2-2-5-5-5-5-5-5-5-5-----------|
E|-5-5-5-5-5-5-5-5-7-7-7-7-7-7-7-7-------------------------------------------|

Chorus
E|---------------------------------------------------------------------------|
B|---------------------------------------------------------------------------|
G|-----------------4-4-4-4-4-4-4-4-7-7-7-7-7-7-7-7---------------------------|
D|-5-5-5-5-5-5-5-5-4-4-4-4-4-4-4-4-7-7-7-7-7-7-7-7-7-7-7-7-7-7-7-7-----------|
A|-5-5-5-5-5-5-5-5-2-2-2-2-2-2-2-2-5-5-5-5-5-5-5-5-7-7-7-7-7-7-7-7-----------|
E|-5-5-5-5-5-5-5-5---------------------------------7-7-7-7-7-7-7-7-----------|

E|---------------------------------------------------------------------------|
B|---------------------------------------------------------------------------|
G|-----------------4-4-4-4-4-4-4-4-7-7-7-7-7-7-7-7---------------------------|
D|-5-5-5-5-5-5-5-5-4-4-4-4-4-4-4-4-7-7-7-7-7-7-7-7-5-5-5-5-5-5-5-5-----------|
A|-5-5-5-5-5-5-5-5-2-2-2-2-2-2-2-2-5-5-5-5-5-5-5-5-5-5-5-5-5-5-5-5-----------|
E|-5-5-5-5-5-5-5-5---------------------------------5-5-5-5-5-5-5-5-----------|

E|---------------------------------------------------------------------------|
B|---------------------------------------------------------------------------|
G|-4-4-4-4-4-4-4-4-7-7-7-7-7-7-7-7-------------------------------------------|
D|-4-4-4-4-4-4-4-4-7-7-7-7-7-7-7-7-7-7-7-7-7-7-7-7-2-2-2-2-2-2-2-2-----------|
A|-2-2-2-2-2-2-2-2-5-5-5-5-5-5-5-5-7-7-7-7-7-7-7-7-2-2-2-2-2-2-2-2-----------|
E|---------------------------------7-7-7-7-7-7-7-7-2-2-2-2-2-2-2-2-----------|

E|---------------------------------------------------------------------------|
B|---------------------------------------------------------------------------|
G|-4-4-4-4-4-4-4-4-7-7-7-7-7-7-7-7---------------------------------4---------|
D|-4-4-4-4-4-4-4-4-7-7-7-7-7-7-7-7-7-7-7-7-7-7-7-7-2-2-2-2-2-2-2-2-4---------|
A|-2-2-2-2-2-2-2-2-5-5-5-5-5-5-5-5-7-7-7-7-7-7-7-7-2-2-2-2-2-2-2-2-2---------|
E|---------------------------------7-7-7-7-7-7-7-7-2-2-2-2-2-2-2-2-----------|

E|---------------------------------------------------------------------------|
B|---------------------------------------------------------------------------|
G|-----4-4-4-4-4-4-4-4-7-7-7-7-7-7-7-7---------------------------------------|
D|-----4-4-4-4-4-4-4-4-7-7-7-7-7-7-7-7-7-7-7-7-7-7-7-7-5-5-5-5-5-5-5-5-------|
A|-----2-2-2-2-2-2-2-2-5-5-5-5-5-5-5-5-7-7-7-7-7-7-7-7-5-5-5-5-5-5-5-5-------|
E|-10/---------------------------------7-7-7-7-7-7-7-7-5-5-5-5-5-5-5-5-------|

E|---------------------------------------------------------------------------|
B|---------------------------------------------------------------------------|
G|-4-4-4-4-4-4-4-4-7-7-7-7-7-7-7-7-------------------------------------------|
D|-4-4-4-4-4-4-4-4-7-7-7-7-7-7-7-7-5-5-5-5-5-5-5-5---------------------------|
A|-2-2-2-2-2-2-2-2-5-5-5-5-5-5-5-5-5-5-5-5-5-5-5-5---------------------------|
E|---------------------------------5-5-5-5-5-5-5-5---------------------------|

E|---------------------------------------------------------------------------|
B|---------------------------------------------------------------------------|
G|-4-4-4-4-4-4-4-4-7-7-7-7-7-7-7-7-------------------------------------------|
D|-4-4-4-4-4-4-4-4-7-7-7-7-7-7-7-7-7-7-7-7-7-7-7-7-2-2-2-2-2-2-2-2-----------|
A|-2-2-2-2-2-2-2-2-5-5-5-5-5-5-5-5-7-7-7-7-7-7-7-7-2-2-2-2-2-2-2-2-----------|
E|---------------------------------7-7-7-7-7-7-7-7-2-2-2-2-2-2-2-2-----------|

E|---------------------------------------------------------------------------|
B|---------------------------------------------------------------------------|
G|-4-4-4-4-4-4-4-4-7-7-7-7-7-7-7-7-------------------------------------------|
D|-4-4-4-4-4-4-4-4-7-7-7-7-7-7-7-7-7-7-7-7-7-7-7-7-2-2-2-2-2-2-2-2-----------|
A|-2-2-2-2-2-2-2-2-5-5-5-5-5-5-5-5-7-7-7-7-7-7-7-7-2-2-2-2-2-2-2-2-----------|
E|---------------------------------7-7-7-7-7-7-7-7-2-2-2-2-2-2-2-2-----------|






************************************

| /   slide up
| \   slide down
| h   hammer-on
| p   pull-off
| ~   vibrato
| +   harmonic
| x   Mute note
| b   Bend
| pb  Pre-bend
| br  Bend release
| pbr Pre-bend release
| brb Bend release bend
00:00 / 00:00
Outros vídeos desta música
Repetir
Outros vídeos desta música
8 exibições
    • ½ Tom
    • Am
    • Bbm
    • Bm
    • Cm
    • C#m
    • Dm
    • Ebm
    • Em
    • Fm
    • F#m
    • Gm
    • G#m
  • Adicionar à lista

Afinação da cifra

Afinador online

    0 comentários

    Ver todos os comentários

    Entre para o Cifra Club PRO

    Tenha acesso a benefícios exclusivos no App e no Site

    • Chega de anúncios

    • Mais recursos no app do Afinador

    • Atendimento Prioritário

    • Aumente seu limite de lista

    • Ajude a produzir mais conteúdo

    00:00 / 00:00

    Cifra Club Pro

    Aproveite o Cifra Club com benefícios exclusivos e sem anúncios
    Cifra Club Pro
    Aproveite o Cifra Club com benefícios exclusivos e sem anúncios
    OK