Cifra Club

Beijo de Luz

Victor e Leo

Cifra: Principal
exibições 45.511
Tom: E (com acordes na forma de C) Capotraste na 4ª casa
Intro 2x: Am  F  G

Ritmo: ↓↑↓↑↓↑

Solo Intro

E|-------------------------------------------------------------3---
B|-----1-1-1------1-0-1-0-5p3---3s1---1-0-0-1-1-1------1-0-1-3-0---
G|-0-0-2-2-2-0----2-0-0-0-----5-----2---0-0-2-2-2-0----2-0-0---0---
D|-2-----------2--3---------------------------------2--3-------0---
A|-------------------------------------------------------------2---
E|-------------------------------------------------------------3---

          Am  C
Lembro de cor
                  G
Das coisas que você me dizia
    Am  C
Tão só,
                G
Não mais me sentia

              Am  C
Você disse assim:
               G
Ninguém está sozinho
          Am  C
Antes do fim,
               G
Há sempre um caminho

Am
Eu me lembro disso
C
Nosso compromisso
G
Era apenas nossa união
     Am
Seu beijo no meu beijo
C
Luzes no meu peito
G
Fogo dentro do coração

Refrão 2X
             Am  F
Um beijo de luz
         Dm                 G
Exclusivamente pra te fazer bem
    Am  F
De luz
                Dm                  G
Você não é exatamente o que eu imaginei
                  Am
É mais do que sonhei

Solo Meio(Uma variação do solo da introdução)

E|------------|-----------------|----------------------------------------------3---
B|-1-1------1-|------0-1-0------|-5-5p3---3-----5-5p3-------1-1-1-----1-0-1-3--0---
G|-2-2-0----2-|------0-0-0------|-------5---5-2--------0--0-2-2-2-0---2-0-0----0---
D|-------2--3-|------Frase|------|----------------------2------------2-3--------0---
A|------------|---opcional ou---|----------------------------------------------2---
E|------------|deixar o F soando|----------------------------------------------3---

(Repete tudo)

O Victor na versão ao vivo usa algumas variações nos acordes:

G|- Variação G4

Am - Variação Am7 e A9

Dm - Variação D9

F|- F9
Acordes para:
    Composição: Victor ChavesColaboração e revisão:

    0 comentários

      mostrar mais comentários

      Conseguiu tocar?

      4tocaram0ainda não

      Grave um vídeo tocando Beijo de Luz e mande pra gente!

      00:00 / 00:00
      outros vídeos desta música
      repetirqualidadeautomática
      Outro vídeos desta música
        00:00 / 00:00
        automática
        OK