Cifra Club

Como Eu Amei

Victor e Leo

Cifra: Principal (violão e guitarra)
tom: E (forma dos acordes no tom de C) Capotraste na 4ª casa
Intro: Am  F  G  Am

E|---------------------------------|
B|--5-3-1-0-0h1p0------------------|
G|--x-------------2--4/5-0----0h2--|
D|--------------------------2------|
A|---------------------------------|
E|---------------------------------|

E|---------------------------------|
B|--5-3-1-0-0h1p0-----0h1-3--------|
G|--x-------------2---------0-0h2--|
D|---------------------------------|
A|---------------------------------|
E|---------------------------------|

E|---------5~----------5~-----------------------------|
B|-5-5-5-5-----6-6-6-6-----8-8~---5h6p5-------5-------|
G|--------------------------------------7-5-7---------|
D|-----------------------------------------------7-7--|
A|----------------------------------------------------|
E|----------------------------------------------------|

E|---------5~----------5~--------5h7-7--5--3/5--|
B|-5-5-5-5-----6-6-6-6-----8-8~-----------------|
G|----------------------------------------------|
D|----------------------------------------------|
A|----------------------------------------------|
E|----------------------------------------------|

Verso 1:

        Am                  F
É impossível, começar uma coisa
         G             Am
Quando outra não terminou.
       F               G                C         G/B    F
É impossível, fazer a chuva subir, impedir que a noite venha...
                 Dm
A minha sede é ferrenha
G                 Am
Mas meu corpo não morre!
                 F               G             Am
Essa sede que aumenta, em cada noite, a cada porre...


Refrão: (2x)

          F    G           Am
Como eu amei, quem vai te amar?
            F     G          Am
Acho improvável, mas pode tentar...


Base do Solo: Dm G C G/B F (2x)
              Dm G C G/B Am
              Am  F  G  Am (2x)

Verso 2:

        Am                         F             G              Am
Vou aprendendo, por isso digo: "vivendo é que a gente passa a saber"...
                    F            G               C     G/B       F
E o que se sabe é pouco, É muito menos que o que se pensava entender.
               Dm   G       Am
Eu pensava em você, você pensava em mim...
                   F               G               Am
Podemos ter nos perdido, mas foi amor e ainda é mesmo assim.


Refrão: (3x)

          F    G           Am
Como eu amei, quem vai te amar?
            F     G          Am
Acho improvável, mas pode tentar...

Final: Am
00:00 / 00:00
Outros vídeos desta música
Repetir
Outros vídeos desta música
Composição de Victor Chaves
Colaboração e revisão:
  • Nilmo Neto
  • Bruno Neneve
26.484 exibições
    • ½ Tom
    • A
    • Bb
    • B
    • C
    • Db
    • D
    • Eb
    • E
    • F
    • F#
    • G
    • Ab
  • Adicionar à lista

    0 comentários

    Ver todos os comentários

    Conseguiu tocar?

    4 Tocaram 1 Ainda não

    Grave um vídeo tocando Como Eu Amei e nos envie!

    Entre para oCifra Club PRO

    Tenha acesso a benefícios exclusivos no App e no Site

    • Chega de anúncios

    • Prioridade de compra em lançamentos

    • Mais recursos no app do Afinador

    • Atendimento Prioritário

    • Descontos nos produtos Cifra Club

    • Ajude a produzir mais conteúdo

    00:00 / 00:00

    Cifra Club Pro

    Aproveite o Cifra Club com benefícios exclusivos e sem anúncios
    Cifra Club Pro
    Aproveite o Cifra Club com benefícios exclusivos e sem anúncios
    OK