Cifra Club

Escuridão Iluminada

Victor e Leo

Cifra: Principal (violão e guitarra)
tom: G
Intro 2x: Am  C  G

E|--------------------------------------------3p0-5/7-5-3------------------------------|
B|--------------0-1-0---------------------3p0-------------3-0------------0-1-0---------|
G|--2p0--0h2--2-------2p0-------------2p0----------------------2p0-0h2-2-------2p0-----|
D|------------------------0h2---0-0p2----------------------------------------------0h2-|
A|-------------------------------------------------------------------------------------|
E|-------------------------------------------------------------------------------------|

E|--------------3h5-3-------5/7--3/5-3-------------------------------------------------|
B|----------3p0-------3h5-3------------3/5\3----1--------------------------------------|
G|------2p0-----------------------------------0---2------------------------------------|
D|-0-2p0-------------------------------------------------------------------------------|
A|----------------------------------------------3-0------------------------------------|
E|--------------------------------------------3----------------------------------------|

Am                              C
Algumas luzes pra guiar nosso caminho
Podemos encontrar
Am                           C
Na escuridão iluminada do destino
            G
Pra tudo clarear
Am                         C
Imaginando uma cena de romance
Já posso te sentir
Am                              C
O corpo inteiro estremece num instante
               G
Mesmo longe de mim
Am
Me diz aonde 
Vou te encontrar
C
Não importa como,vou te buscar
      G
Eu preciso te ver
Me entrego pra você
Am
Olhando estrelas,tento procurar
C
No meio delas o seu olhar
     G
Eu preciso te ver
Me entrego pra você
C                                (C Em Am)
Esquece esse medo que hoje a noite é nossa 
Am
Me abrace forte nada mais importa
    G
Eu quero amar você
Eu vou amar você
C                        (C Em Am)
E nessa escuridão iluminada te vejo
Am
Conheço tudo em você,seu corpo,seu beijo
    G
Eu quero amar você
Eu vou amar você
00:00 / 00:00
Outros vídeos desta música
Repetir
Outros vídeos desta música
Composição de Leo Chaves / Paulinha Gonçalves
Colaboração e revisão:
  • Adson Silva
  • jeferson Luis
16.235 exibições
    • ½ Tom
    • A
    • Bb
    • B
    • C
    • Db
    • D
    • Eb
    • E
    • F
    • F#
    • G
    • Ab
  • Adicionar à lista

    0 comentários

    Ver todos os comentários

    Conseguiu tocar?

    4 Tocaram 0 Ainda não

    Grave um vídeo tocando Escuridão Iluminada e nos envie!

    Entre para oCifra Club PRO

    Tenha acesso a benefícios exclusivos no App e no Site

    • Chega de anúncios

    • Prioridade de compra em lançamentos

    • Mais recursos no app do Afinador

    • Atendimento Prioritário

    • Descontos nos produtos Cifra Club

    • Ajude a produzir mais conteúdo

    00:00 / 00:00

    Cifra Club Pro

    Aproveite o Cifra Club com benefícios exclusivos e sem anúncios
    Cifra Club Pro
    Aproveite o Cifra Club com benefícios exclusivos e sem anúncios
    OK