Cifra Club

Nem Sei

Victor e Leo

Cifra: Principal
exibições 14.192
Tom: D
Intro:

           Bm              A            G                   A
E|--------------|----------3--|-----------------1------|--------|
B|---1--------1-|---0---------|---1--------1-----------|---0----|
G|---2-----2----|-------------|----------2-------------|--------|
D|-------2------|-------0-----|-------3--------------3-|--------|
A|---0----------|-------------|------------------------|--------|
E|--------------|---3---------|---1--------------------|---3----|

           Bm              A            G
E|--------------------|----------3-|-----------------1------|
B|---1------0h1h0-----|---0-----0--|---1--------1---1-------|
G|---2-----2--------2-|------------|----------2------2------|
D|-------2------------|-------0----|-------3---------3------|
A|---0----------------|------------|----------------- 3-----|
E|--------------------|---3------3-|---1--------------1-----|


Bm      G          F#  F#7 F#
Nem sei, o que dizer
Bm             A         G
A emoção tomou conta de mim
Em                       F#              Bm   A
É como ver o sol nascer, pela primeira vez
          G       A                 Bm    A
Quando me lembro do brilho dos nos olhos
            G         F#  F#7 F#
E do seu sorriso pra mim

Refrão:
G                          D
Baby, quando você chega tudo vira verão
             A              Bm         A
E um fogo ardente, aquece o meu coração
G                         D
Baby, quando você fica comigo
           A             Bm
Viro um menino, me transformo
  A           G
E nem me reconheço
        D         A         G
Baby, você é tão linda que nem sei
         Bm  A  G
Se te mereço

Solo


E|--------------14-----14-14h15--14-----15-14----------------------------------22-21----|
B|------------------15--------------15--------17-15----15-17----------------19-------19-|
G|--------------------------------------------------16--------16-16/-----19-------------|
D|-16/19/16--16-------------------------------------------------------21----------------|
A|--------------------------------------------------------------------------------------|
E|--------------------------------------------------------------------------------------|

E|-------17-15----17-15----17-15----17-15----17-17/19~----------------|
B|-19-15-------15-------15-------15-------15------------15h17-17b18-~-|
G|--------------------------------------------------------------------|
D|--------------------------------------------------------------------|
A|--------------------------------------------------------------------|
E|--------------------------------------------------------------------|
Acordes para:

    0 comentários

      mostrar mais comentários

      Conseguiu tocar?

      5tocaram0ainda não

      Grave um vídeo tocando Nem Sei e mande pra gente!

      00:00 / 00:00
      outros vídeos desta música
      repetirqualidadeautomática
      Outro vídeos desta música
        00:00 / 00:00
        automática
        OK