Cifra Club

Nova York

Victor e Leo

Cifra: Principal
exibições 1.450.170
Tom: G
Intro:  G  D  Am  C  G  (2X)

E|-3-3-3-3-3-3-2-0-------------------------------|
B|------------------3-1-0---------0-1------0-1---|
G|------------------------2----2------2-2------2-|
D|-----------------------------------------------|
A|-----------------------------------------------|
E|-----------------------------------------------|

Am           C           G
Essa é a história de um novo herói
Am          C         G
Cabelos compridos a rolar no vento
Am       C          G
Pela estrada no seu caminhão
Am          C                G
Cravado no peito a sombra de um dragão
C                     G
Tinha um sonho ir pra Nova York
G
levar a namorada
C                   G
Fazer seu caminhão voar nas nuvens
C                 G
Mas enquanto isso na estrada
         Am       C
Saudade vai, vai, vai
         Am        C        G
Saudade vem, vem, vem te buscar

Solo:  D  Am  C  G

E|-3-3-3-3-3-3-2-0-------------------------------|
B|------------------3-1-0---------0-1------0-1---|
G|------------------------2----2------2-2------2-|
D|-----------------------------------------------|
A|-----------------------------------------------|
E|-----------------------------------------------|
Acordes para:

    0 comentários

      mostrar mais comentários

      Conseguiu tocar?

      189tocaram5ainda não

      Grave um vídeo tocando Nova York e mande pra gente!

      00:00 / 00:00
      outros vídeos desta música
      repetirqualidadeautomática
      Outro vídeos desta música
        00:00 / 00:00
        automática
        Capítulos
        • Início
        • Acordes da introdução
        • Tocando a introdução
        • Tocando ritmo da introdução devagar
        • Acordes da primeira parte
        • Tocando primeira parte
        • Acordes do refrão
        • Tocando refrão
        • Tocando ritmo do refrão
        • Encerramento
        OK