Cifra Club

Tem Que Ser Você

Victor e Leo

Cifra: Principal
exibições 2.772.957
Tom: G
(intro) G D/F#

E |-10----10-----10-----10-|
B |----10-----8------10----|
G |------------------------|
D |------------------------|
A |-10--------10-----------|
E |----10------------10----|

G  D/F#      G  D/F#
Um dia seus pés
G  D/F#   G  D/F#
vão me levar
G    D/F#       G  D/F#
Onde as minhas mãos
G   D/F#      G  D/F#
não podem chegar

C  G/B  Am  Am/G   D  (lick 1)
Me leva onde você for
C      G/B    Am      Am/G D
Estarei muito só sem o seu amor
C G/B Am  Am/G  D
Agora é a hora de dizer

(refrão)
G     D  Em  C
Que hoje eu te amo
G     D  Em  C
Não vou negar
G    D Em  C      G  D   Em
Que outra pessoa não servirá
C
Tem que ser você
         D
Sem por que, sem pra que
C
Tem que ser você
D
Sem ser necessário entender

(intro 2x)

(solo) ( G  D  Em  C ) (3x)
       ( G  D  G )

E |--------------------------------------------------------------------------|
B |-----------------------8~---8~--8-8h10/11/12-12-12/10-8-8-----------------|
G|7h9-7----------------9-----9----9-9----------12-12/9--9-9--9-7-7h9--------|
D |-----9-7h9-7---7---------------------------------------------------9-7----|
A |-------------10-10~~------------------------------------------------------|
E |--------------------------------------------------------------------------|

E |------------------10------12------14------8p7-------------10~~---------|
B |-------------10/12---12/13---13/15--15-------8-8~----------------------|
G |--------7h9--------------------------------------7-9-9/11--------------|
D |------9----------------------------------------------------------------|
A |7-9-10-----------------------------------------------------------------|
E |-----------------------------------------------------------------------|

C  G/B  Am  Am/G   D
Me leva onde você for
C      G/B    Am      Am/G D
Estarei muito só sem o seu amor
C G/B Am  Am/G  D
Agora é a hora de dizer

(refrão)
G     D  Em  C
Que hoje eu te amo
G     D  Em  C
Não vou negar
G    D Em  C      G  D   Em
Que outra pessoa não servirá
C
Tem que ser você
         D
Sem por que, sem pra que
C
Tem que ser você
D
Sem ser necessário entender

(lick 1)

E |-------------------|
B |-7-8-8/10--7h8-7---|
G |----------------7--|
D |-----------------7-|
Acordes para:
    Colaboração e revisão:

    0 comentários

      mostrar mais comentários

      Conseguiu tocar?

      47tocaram0ainda não

      Grave um vídeo tocando Tem Que Ser Você e mande pra gente!

      00:00 / 00:00
      outros vídeos desta música
      repetirqualidadeautomática
      Outro vídeos desta música
        00:00 / 00:00
        automática
        Capítulos
        • Início
        • Acordes da introdução
        • Tocando introdução
        • Ritmo da introdução
        • Acordes da primeira parte
        • Tocando a primeira parte
        • Ritmo da primeira parte
        • Acordes do refrão
        • Tocando refrão
        • Ritmo do refrão
        • Acordes e ritmo da base do solo
        • Tocando a base do solo
        • Dedilhado da introdução simplificado
        • Ensinando o dedilhado da introdução
        • Tocando o dedilhado devagar
        • Encerramento
        OK