Cifra Club

Tudo Com Você

Victor e Leo

Cifra: Principal
exibições 48.788
Tom: D# (com acordes na forma de C) Capotraste na 3ª casa
Base Intro: Am G Am G

Solo Intro:
           Am                          G                           Am
E|-----5----5---5---8---7---5--3----3----3----7----5----3/5-5--|
B|-3/5---5----5---5---5---5-------3----3----3---3----3---------|
G|-------------------------------------------------------------|
D|-------------------------------------------------------------|
A|-------------------------------------------------------------|
E|-------------------------------------------------------------|
                                    G                              Am
E|-------5---5---8---7---5--3-------3----3----7----5----3/5-5--|
B|----5----5---5---5---5----------3----3----3---3----3---------|
G|-------------------------------------------------------------|
D|-------------------------------------------------------------|
A|-------------------------------------------------------------|
E|-------------------------------------------------------------|

Am
Tudo com você,
Em
Seu corpo no meu.
F
Sem nenhum por que,
        G
Hoje meu coração é seu.

Am
Sou tudo ao seu lado,
Em
Preciso te encontrar
F
Diga se estou errado
         G
Algo me faz querer te amar

Dm             F         Am  G
Então, agora é só você e eu
 Dm             F         C                  G
Não tenha medo de dizer: "Tudo de você é só meu!"

      Am         G
Só o amor, faz voar
     Dm                F    G
Meu amor, vivo pra te ama...ar
      Am         G
Só o amor, faz voar
     Dm                 F   G
Meu amor, vivo pra te ama...ar

Solo: Am  G  Dm  F  G
Acordes para:
    Composição: Leo ChavesColaboração e revisão:

    0 comentários

      mostrar mais comentários

      Conseguiu tocar?

      14tocaram0ainda não

      Grave um vídeo tocando Tudo Com Você e mande pra gente!

      00:00 / 00:00
      outros vídeos desta música
      repetirqualidadeautomática
      Outro vídeos desta música
        00:00 / 00:00
        automática
        OK