Cifra Club

Diante do Rei

Vida Reluz

Cifra: Principal (violão e guitarra)
Selo Cifra Club: esta cifra foi revisada para atender aos critérios oficiais da nossa Equipe de Qualidade.
tom: A
[Intro] E4

[Primeira Parte]

 A2          E/G#
Vem, Senhor Jesus!
       F#m7                    C#m7
O coração já bate forte ao te ver
        D7M           Bm7      C#m7
A Tua graça hoje eu quero receber
       Bm7                  A2/E
Sem a benção do Senhor não sei viver

 A2           E/G#
Vem Senhor Jesus!
         F#m7                         C#m7
Olhar o povo ao Teu redor me faz lembrar
         D7M        Bm7            C#m7
A multidão lá no caminho a te esperar
       Bm7
Vem ó Santo de Israel
    E7(4)
Passar também neste lugar

[Refrão]

     D7M           E
É o rei! A nossa frente está!
     C#m7          F#m7
É feliz quem o adorar
   D7M            E
É Jesus, o nosso mestre e rei!
       C#m7             F#m7
Bem aqui, tão perto se deixa encontrar
        D7M
Diante do rei dos reis
 A/C#  Bm7      E4   A2
Todo joelho se dobrará

[Solo]

E|------------------------------------------|
B|---------7-9h10-10~--7-9-10-10-7-9-10-10--|
G|-----6-9----------------------------------|
D|-7-9--------------------------------------|
A|------------------------------------------|
E|------------------------------------------|

E|------7-7/9-----9-9-10-9-7----------------|
B|-7-10-------------------------------------|
G|------------9-9------------9--------------|
D|------------------------------------------|
A|------------------------------------------|
E|------------------------------------------|

E|------------------------------------------|
B|---------7-9h10-10~-10-10-10-9-7-7--------|
G|-----6-9---------------------------9-7----|
D|-7-9--------------------------------------|
A|------------------------------------------|
E|------------------------------------------|

E|---------------------------7-9------------|
B|----------------------7-10----------------|
G|-----7-7-----7----7-9---------------------|
D|-7-9-----7-9----9-------------------------|
A|------------------------------------------|
E|------------------------------------------|

E|----------7-9-10-12-9-10-7-9-5-7-4-5-2-4--|
B|-----7-10--------------------------------0|
G|-7-9--------------------------------------|
D|------------------------------------------|
A|------------------------------------------|
E|------------------------------------------|

     D7M           E
É o rei! A nossa frente está!
     C#m7          F#m7
É feliz quem o adorar
   D7M            E
É Jesus, o nosso mestre e rei!
       C#m7             F#m7
Bem aqui, tão perto se deixa encontrar
        D7M
Diante do rei dos reis
 A/C#  Bm7           E4  A2  F#m7
Todo joelho se dobrará
        D7M
Diante do rei dos reis
 A/C#  Bm7      E7(4)  F#
Todo joelho se dobrará
        Bm7
Diante do rei dos reis
       D/E           A2
Todo joelho se dobrará

[Tab - Final]

E|------------------------------9-9-7-------|
B|---------7-9-10-9-------10-7--------10-9--|
G|-----6-9----------9-6-9-------------------|
D|-7-9--------------------------------------|
A|------------------------------------------|
E|------------------------------------------|

E|------------------------------------------|
B|---------9h10-7---7-9h10-9~---------------|
G|-9-9-6-9--------6-------------------------|
D|------------------------------------------|
A|------------------------------------------|
E|------------------------------------------|

[Final] D7M  A2  D7M
Outros vídeos desta música
952.349 exibições
  • Simplificar cifra
    • ½ Tom
    • A
    • Bb
    • B
    • C
    • Db
    • D
    • Eb
    • E
    • F
    • F#
    • G
    • Ab
  • Adicionar à lista

Afinação da cifra

Afinador online

    0 comentários

    Ver todos os comentários

    Entre para o Cifra Club PRO

    Tenha acesso a benefícios exclusivos no App e no Site

    • Chega de anúncios

    • Mais recursos no app do Afinador

    • Atendimento Prioritário

    • Aumente seu limite de lista

    • Ajude a produzir mais conteúdo

    Cifra Club Pro

    Aproveite o Cifra Club com benefícios exclusivos e sem anúncios
    Cifra Club Pro
    Aproveite o Cifra Club com benefícios exclusivos e sem anúncios
    OK