Cifra Club

Diante do Rei

Vida Reluz

Cifra: Principal (violão e guitarra)
tom: A
  A9         E/G#      F#m7                     C#m7
Vem Senhor Jesus! O coração já bate forte ao te ver
      D7M           Bm7      C#m7        Bm7                 E7(4)
A tua graça hoje eu quero receber, sem a benção do Senhor não sei viver

A9           E/G#         F#m7                        C#m7
Vem Senhor Jesus! Olhar o povo ao teu redor me faz lembrar
       D7M        Bm7           C#m7
A multidão lá no caminho a te esperar
       Bm7             E7(4)
Vem ó Santo de Israel passar também neste lugar

    D7M            E/D           C#m7         F#m7
É o rei! A nossa frente está! É feliz quem o adorar
    D7M           E/D              C#m7               F#m7
É Jesus, o nosso Mestre e rei! Bem aqui, tão perto se deixa encontrar
       D7M             A/C#  Bm7      E7(4) A9
Diante do rei dos reis todo joelho se dobrará

[Solo]

        A9           D7M        Bm7                          C#m7
E|------------------------------------------------------------------|
B|--------------9-10-10-----9-10-10----9-10-10----9-10-10-12/14-----|
G|---------9-11----------11---------11---------11---------------9-9-|
D|-9-11-12----------------------------------------------------------|
A|------------------------------------------------------------------|
E|------------------------------------------------------------------|
               F#m7                 D7M              A/C#  Bm7
E|-9h10p9-----------------------------------------------------------|
B|--------12------------------9-10-10--10-10-10-9-------------------|
G|-----------9-9---------9-11---------------------11-11-9-----------|
D|---------------9-11-12---------------------------------12---------|
A|------------------------------------------------------------------|
E|------------------------------------------------------------------|
             Bm7/A        G7M               D/F#
E|------------------------------------------------------------------|
B|------------------------------------9--------------9-10-----------|
G|--------------------------------9-11-----------9-11---------------|
D|-9-11-12-12-11-9---------9-11-12--------9-11-12-------------------|
A|----------------12--10-12-------------12--------------------------|
E|------------------------------------------------------------------|
       E4                  E
E|-9-10-------------------------------------------------------------|
B|-----10-12-9-10---------------------------------------------------|
G|---------------9-11-----------------------------------------------|
D|--------------------11-12-9---------------------------------------|
A|------------------------------------------------------------------|
E|------------------------------------------------------------------|

    D7M          E/D             C#m7          F#m7
É o rei! A nossa frente está! É feliz quem o adorar
    D7M          E/D               C#m7               F#m7
É Jesus, o nosso Mestre e rei! Bem aqui, tão perto se deixa encontrar
       D7M             A/C# Bm7       E7(4) A9  F#m7
Diante do rei dos reis todo joelho se dobrará
       D7M             A/C# Bm7       E7(4) F#  F#/A#
Diante do rei dos reis todo joelho se dobrará
       Bm                  D/E            A9  D7M ( A9 D7M)
Diante do rei dos reis todo joelho se dobrará

    ( A9 D7M)
E|-----------4/5\4-------4------------------------------------------|
B|-------5-7-------5---5---7~---------------------------------------|
G|---4-6-------------6----------------------------------------------|
D|-7----------------------------------------------------------------|
A|------------------------------------------------------------------|
E|------------------------------------------------------------------|

E|-9-9/7------------------------------------------------------------|
B|-------10-9-------------------------------------------------------|
G|------------9-9-6-9~----------------------------------------------|
D|------------------------------------------------------------------|
A|------------------------------------------------------------------|
E|------------------------------------------------------------------|

E|------------------------------------------------------------------|
B|-7/10-7------9/10-9~~---------------------------------------------|
G|--------7--7------------------------------------------------------|
D|------------------------------------------------------------------|
A|------------------------------------------------------------------|
E|------------------------------------------------------------------|
00:00 / 00:00
Outros vídeos desta música
Repetir
Outros vídeos desta música
Composição de Jorge Mongo / Walmir Alencar
716.097 exibições
    • ½ Tom
    • A
    • Bb
    • B
    • C
    • Db
    • D
    • Eb
    • E
    • F
    • F#
    • G
    • Ab
  • Adicionar à lista

    0 comentários

    Ver todos os comentários

    Entre para oCifra Club PRO

    Tenha acesso a benefícios exclusivos no App e no Site

    • Chega de anúncios

    • Prioridade de compra em lançamentos

    • Mais recursos no app do Afinador

    • Atendimento Prioritário

    • Descontos nos produtos Cifra Club

    • Ajude a produzir mais conteúdo

    00:00 / 00:00

    Cifra Club Pro

    Aproveite o Cifra Club com benefícios exclusivos e sem anúncios
    Cifra Club Pro
    Aproveite o Cifra Club com benefícios exclusivos e sem anúncios
    OK