Cifra Club

Aprenda

Vinde, Espírito Santo

Vida Reluz

Cifra: Versão 2 (violão e guitarra)
Tom: C
Intro: C  G/B  Am  Am/G  F  C/E  Dm7  F/G  G7

C    G/B   Am         Am/G F           C/E      Dm7      F/G G7
Vinde, ó Espírito Santo, enchei os corações dos vossos fiéis.
C    G/B   Am         Am/G F           C/E      Dm7      F/G G7
Vinde, ó Espírito Santo, enchei os corações dos vossos fiéis.

( C  G/B  Am )                G              C   (C G/B F)                 Em
          Acendei neles o fogo do vosso amor,         Enviai o vosso Espírito,
            Am           Em       F          Dm7     F/G G7
          E tudo será criado, e renovareis a face da terra.
( C  G/B  Am )                G              C   (C G/B F)                 Em
          Acendei neles o fogo do vosso amor,         Enviai o vosso Espírito,
            Am           Em       F          Dm7     F/G G7
          E tudo será criado, e renovareis a face da terra.

Solo: C  G/B  Am  Am/G  F  C/E  Dm7  F/G  G7
E|------------------8/10-8p7-8v-------8/7-7/5-5/3-------------------------------------------------
B|-3/5v----5-6-6h8------------------------------------/10-10-8-------/10-10-8--------3h5-5-3-1-1h3
G|----------------------------------5-------------5-7----------4-5-7-----------4-5-7--------------
D|------------------------------------------------------------------------------------------------
A|------------------------------------------------------------------------------------------------
E|------------------------------------------------------------------------------------------------

E|---------------------------
B|---8-10-10b12-10-8-6-8v----
G|-7-------------------------
D|---------------------------
A|---------------------------
E|---------------------------

C   G/B      Am        Am/G F           C/E     Dm7          F/G G7
Doce, doce Espírito Santo, exemplo quero ser da mãe do meu senhor.
C   G/B      Am        Am/G F           C/E     Dm7          F/G G7
Doce, doce Espírito Santo, exemplo quero ser da mãe do meu senhor.

( C G/B Am )                 G               C  ( C G/B F )                Em
          Como um sacrário vivo levando o amor,       Revelando coisas que eu não sei
             Am                 Em         F             Dm7     F/G G7
          Mistérios do grande autor, se eu conhecer, por nada eu trocarei.
( C G/B Am )                 G               C  ( C G/B F )                Em
          Como um sacrário vivo levando o amor,       Revelando coisas que eu não sei
             Am                 Em         F             Dm7 F/G C
          Mistérios do grande autor, se eu conhecer, por nada eu trocarei.
( Am Am/G )      F             Dm7 F/G Am     Am/G
          Se eu conhecer por nada eu trocarei.
                F             Dm7 F/G C
          Se eu conhecer por nada eu trocarei.
Composição de Walmir Alencar
Colaboração e revisão:
  • Eduardo Denbinski
  • Henrique Bittencourt
4.044 exibições
    • ½ Tom
    • A
    • Bb
    • B
    • C
    • Db
    • D
    • Eb
    • E
    • F
    • F#
    • G
    • Ab
  • Adicionar à lista

    0 comentários

    Mostrar mais comentários
    00:00 / 00:00
    outros vídeos desta música
    repetir qualidade Automático
    Outros vídeos desta música
    00:00 / 00:00
    Automático

    Cifra Club Pro

    Aproveite o Cifra Club com benefícios exclusivos e sem anúncios
    Cifra Club Pro
    Aproveite o Cifra Club com benefícios exclusivos e sem anúncios
    OK