Cifra Club

Aprenda

Agnus Dei

Vineyard

Cifra: Principal (violão e guitarra)
Já pensou em usar uma coleção de roupas do Cifra Club? Responda as perguntas abaixo e nos ajude nessa missão! →
tom: C
E|------------------------------------------------------------------------------------|
B|-4/5-6-8-10-8~--4/5-6-8-10-12h13-13--12p10-12-10p8-10-8p6-8~------------------------|
G|------------------------------------------------------------------------------------|
D|------------------------------------------------------------------------------------|
A|------------------------------------------------------------------------------------|
E|------------------------------------------------------------------------------------|

E|------------------------------------------------------------------------------------|
B|-4/5-6-8-10-8-8~--4/5-6-8-10-12h13-13--12p10-12-10p8-10-8p6-8--8~-------------------|
G|------------------------------------------------------------------------------------|
D|------------------------------------------------------------------------------------|
A|------------------------------------------------------------------------------------|
E|------------------------------------------------------------------------------------|

E|------------------------10-12-12--10-12-12-----12-13-12-10--10-8-8h10---------------|
B|4/5-6-8-10-12h13-13~-13---------------------13--------------------------------------|
G|------------------------------------------------------------------------------------|
D|------------------------------------------------------------------------------------|
A|------------------------------------------------------------------------------------|
E|------------------------------------------------------------------------------------|

E|-10h12-10-------10h12-10------------------------------------------------------------|
B|---------13-10----------13-10--10-12/13-13~~~~--------------------------------------|
G|------------------------------------------------------------------------------------|
D|------------------------------------------------------------------------------------|
A|------------------------------------------------------------------------------------|
E|------------------------------------------------------------------------------------|

Composição de Vineyard
Colaboração e revisão:
  • Kelly XJonathan
  • Rafael Dalceno
32.487 exibições
    • ½ Tom
    • A
    • Bb
    • B
    • C
    • Db
    • D
    • Eb
    • E
    • F
    • F#
    • G
    • Ab
  • Adicionar à lista

    0 comentários

    Ver todos os comentários
    00:00 / 00:00
    Outros vídeos desta música
    Repetir Qualidade Automático
    Outros vídeos desta música
    00:00 / 00:00
    Automático

    Cifra Club Pro

    Aproveite o Cifra Club com benefícios exclusivos e sem anúncios
    Cifra Club Pro
    Aproveite o Cifra Club com benefícios exclusivos e sem anúncios
    OK