Cifra Club

Vem, Esta É a Hora

Vineyard

Cifra: Principal (violão e guitarra)
Selo Cifra Club: esta cifra foi revisada para atender aos critérios oficiais da nossa Equipe de Qualidade.
tom: D
[Intro] D

[Primeira Parte] 

 D                      D4  D
Vem, esta é a hora da adoração
 A                  Em  G
Vem, dar a Ele teu coração
 D                       D4    D
Vem, assim como estás para adorar
 A                         Em    G
Vem, assim como estás diante do Pai
 D
Vem

[Refrão] 

 G                   D
Toda língua confessará o Senhor
 G                   D
Todo joelho se dobrará
 G                  Bm
Mas aquele que a Ti escolher
     G             A4  A
O tesouro maior terá

[Primeira Parte] 

 D                      D4  D
Vem, esta é a hora da adoração
 A                  Em  G
Vem, dar a Ele teu coração
 D                       D4    D
Vem, assim como estás para adorar
 A                         Em    G
Vem, assim como estás diante do Pai
 D
Vem

[Refrão] 

 G                   D
Toda língua confessará o Senhor
 G                   D
Todo joelho se dobrará
 G                  Bm
Mas aquele que a Ti escolher
     Em            A4  A
O tesouro maior terá

[Solo] E  E4  E 
       B  F#m  A 
       E  E4  E 
       B  F#m  A  E

[Tab - Solo]

Parte 1 De 4
E|----------------------------------------------------|
B|-/9~--7-9-9b10r9--7-9-9b10-b10r9p7-9~---------------|
G|----------------------------------------------------|
D|----------------------------------------------------|
A|----------------------------------------------------|
E|----------------------------------------------------|

Parte 2 De 4
E|----------------------------------------------------|
B|-/7~--7-9-9b10r9-7-5-5~------5-5~-------------------|
G|-------------------------4h6------------------------|
D|----------------------------------------------------|
A|----------------------------------------------------|
E|----------------------------------------------------|

Parte 3 De 4
E|----------------------------------------------------|
B|-/9~--7-9-9b10r9--7-9-9b10-b10r9p7-9~---------------|
G|----------------------------------------------------|
D|----------------------------------------------------|
A|----------------------------------------------------|
E|----------------------------------------------------|

Parte 4 De 4
E|-14~--14-16-16b17r16-14-12-12~--------12-12~--------|
B|--------------------------------12h14---------------|
G|----------------------------------------------------|
D|----------------------------------------------------|
A|----------------------------------------------------|
E|----------------------------------------------------|

[Refrão] 

 A                   E
Toda língua confessará o Senhor
 A                   E
Todo joelho se dobrará
 A                  C#m
Mas aquele que a Ti escolher
     F#m           B4  B
O tesouro maior terá

 A                   E
Toda língua confessará o Senhor
 A                   E
Todo joelho se dobrará
 A                  C#m
Mas aquele que a Ti escolher
     F#m           B4  B
O tesouro maior terá

[Primeira Parte] 

 E                      E4  E
Vem, esta é a hora da adoração
 B                  F#m  A
Vem, dar a Ele teu cora_ção
 E                         E4  E
Vem, assim como estás para adorar
 B                         F#m   A
Vem, assim como estás diante do Pai
 E    
Vem, Vem, Vem, Vem, Vem
00:00 / 00:00
Outros vídeos desta música
Repetir
Outros vídeos desta música
880.022 exibições
    • ½ Tom
    • A
    • Bb
    • B
    • C
    • Db
    • D
    • Eb
    • E
    • F
    • F#
    • G
    • Ab
  • Adicionar à lista

Afinação da cifra

Afinador online

    0 comentários

    Ver todos os comentários

    Entre para o Cifra Club PRO

    Tenha acesso a benefícios exclusivos no App e no Site

    • Chega de anúncios

    • Mais recursos no app do Afinador

    • Atendimento Prioritário

    • Aumente seu limite de lista

    • Ajude a produzir mais conteúdo

    00:00 / 00:00

    Cifra Club Pro

    Aproveite o Cifra Club com benefícios exclusivos e sem anúncios
    Cifra Club Pro
    Aproveite o Cifra Club com benefícios exclusivos e sem anúncios
    OK