Cifra Club

Aprenda

Vim Para Adorar-te

Vineyard

Cifra: Solo (violão e guitarra)
tom: D
Luz do mundo viestes a terra, Pra que eu pudesse te ver
E|-4-4-2-2-4-5-5-4-2---4-4-5-2-2-4--------------------------------------------|
B|-------------------5-------------5------------------------------------------|
G|----------------------------------------------------------------------------|
D|----------------------------------------------------------------------------|
A|----------------------------------------------------------------------------|
E|----------------------------------------------------------------------------|

Tua beleza me leva a adorar-te, Quero contigo viver
E|-4-4-5-2-2-4-5-5-5-4-2---4-4-5-2-2-4------------------------------------------|
B|-----------------------5-------------5-------------------------|
G|-------------------------------------------------------------|
D|-------------------------------------------------------------|
A|-------------------------------------------------------------|
E|-------------------------------------------------------------|

Vim para adorar-te, Vim para prostrar-me Vim para dizer que és meu Deus
E|-5-4-4-2-4-4-5-4-4-2-2-2-5-4-4-2-4-4-4/7----------------------------------------|
B|-----------------------------------------5--------------------------------------|
G|--------------------------------------------------------------------------------|
D|--------------------------------------------------------------------------------|
A|--------------------------------------------------------------------------------|
E|--------------------------------------------------------------------------------|

És totalmente amável, Totalmente digno, Tão maravilhoso para mim
E|-5-4-4-2-4-4-5-4-4-2-2-2-5-4-4-2-4-4-4/7----------------------------------------|
B|-----------------------------------------5--------------------------------------|
G|--------------------------------------------------------------------------------|
D|--------------------------------------------------------------------------------|
A|--------------------------------------------------------------------------------|
E|--------------------------------------------------------------------------------|

DEPOIS REPETE TUDO !!
Compositor não encontrado.
Colaboração e revisão:
  • Filipe Fernando
5.507 exibições
    • ½ Tom
    • A
    • Bb
    • B
    • C
    • Db
    • D
    • Eb
    • E
    • F
    • F#
    • G
    • Ab
  • Adicionar à lista

    0 comentários

    Ver todos os comentários
    00:00 / 00:00
    Outros vídeos desta música
    Repetir Qualidade Automático
    Outros vídeos desta música
    00:00 / 00:00
    Automático

    Cifra Club Pro

    Aproveite o Cifra Club com benefícios exclusivos e sem anúncios
    Cifra Club Pro
    Aproveite o Cifra Club com benefícios exclusivos e sem anúncios
    OK