Cifra Club

Insensatez

Vinicius de Moraes

Cifra: Principal (violão e guitarra)
tom: Bm
Bm7         F#/A#           Am6
A   insensatez     que você fez
                    E7(9)/G#   E7/G#
Coração mais sem cuida-        do
G6            C7M        C#m7(b5)
Fez chorar de dor, o seu amor
    F#9-     B4(7M)  Bm7
Um amor tão deli-    ca-      do
D7/A             Abº              G7M
Ah,    porque você    foi fraco assim
   E6(9)      Bm7
Assim tão desalmado
D7/A           Db7/Ab         Em6/G
Ah,    meu coração que nunca amou
      F#7       Bm7
Não merece ser amado

Bm7          F#/A#        Am6
Vai  meu coração ouve a razão
               E7(9)/G#
Usa só sincerida-  de
G6          C7M            C#m7(b5)
Quem semeia vento, diz a razão
      F#9- B4(7M) Bm7
Colhe sempre tempesta-      de
D7/A          Abº         G7M
Vai, meu coração pede perdão
    E6(9)     Bm7
Perdão apaixona-  do
D7/A            Db7/Ab           Em6/G
Vai porque quem não      pede perdão
      F#7        Bm7
Não é nunca perdoado

   Bm7  F#/A#  Am6   E7(9)/G#  E7/G#   G6 F#9-
E|------------------2----------0------0---3---------|
B|-7----7------7----3----------3------3---3---------|
G|-7----6------5----4----------4------4---3---------|
D|-7----4------4----2----------2------2---4---------|
A|--------------------------------------------------|
E|-7----6------5----4----------4------3-------------|

   B4(7M) Bm7  D7/A  Abº  G7M  E6(9) Db7/Ab  Em6/G  F#7
E|-0---------------------2-----2-----2----------------|
B|-3------3----3----3----3-----2-----4-------2------5-|
G|-3------2----5----4----4-----4-----3-------4------3-|
D|-4------4----4----3----------2-------------2------2-|
A|-2------2-------------------------------------------|
E|-------------5----4----3-----------4-------3------2-|
00:00 / 00:00
Outros vídeos desta música
Repetir
Outros vídeos desta música
Composição de Antonio Carlos Jobim / Vinícius de Moraes
Colaboração e revisão:
  • Joao Ferrari
6.379 exibições
    • ½ Tom
    • Am
    • Bbm
    • Bm
    • Cm
    • C#m
    • Dm
    • Ebm
    • Em
    • Fm
    • F#m
    • Gm
    • G#m
  • Adicionar à lista

    0 comentários

    Ver todos os comentários

    Conseguiu tocar?

    2 Tocaram 2 Ainda não

    Grave um vídeo tocando Insensatez e nos envie!

    Entre para oCifra Club PRO

    Tenha acesso a benefícios exclusivos no App e no Site

    • Chega de anúncios

    • Prioridade de compra em lançamentos

    • Mais recursos no app do Afinador

    • Atendimento Prioritário

    • Descontos nos produtos Cifra Club

    • Ajude a produzir mais conteúdo

    00:00 / 00:00

    Cifra Club Pro

    Aproveite o Cifra Club com benefícios exclusivos e sem anúncios
    Cifra Club Pro
    Aproveite o Cifra Club com benefícios exclusivos e sem anúncios
    OK