Cifra Club

Ruleta Rusa

Viniloversus

Cifra: Principal (violão e guitarra)
tom: F
Intro

C7

C7
Si sientes vértigo al ver

Que tal vez te puedas caer

Tranquila yo te aguantare
                      A#7
O al menos eso intentare
            G#7              C7
y es que no se si rescatarte

Si te tuviera que pintar

Dime qué color usar

Si tú eres tan irreverente
                      A#7
Tú eres alguien diferente
                   G#7
Y se siente como si

Tuviera en frente
         C7
Una asesina delincuente

Con celos en mente

Ganas de matar


E|-----------------------------------------|
B|-----------------------------------------|
G|-8-10-8---------8-10-10-10-10-8--9-------|
D|--------10--8-10-----------------10------|
A|---------------------------------10------|
E|---------------------------------8-------|

E|--------------------------------------|
B|--------------------------------------|
G|-8-10-8------8-10-10-10-10-8--9-------|
D|--------10--------------------10------|
A|------------------------------10------|
E|------------------------------8-------|

E|------------------------------------------------x-x--|
B|------------------------------------------------x-x--|
G|-8-10-8-----------------------------------------x-x--|
D|--------10--10-8--------------------------------x-x--|
A|------------------10-8--------------------------x-x--|
E|-----------------------10-8-8-10-8-8-10-8-8-10--x-x--|

Coro
C
  Ruleta rusa
F           D#
  Sálvame a mí
C                   F           D#
  Dame una excusa para sobrevivir
C
  Ruleta rusa
F           D#  C              F            D#
  Mátame a mi no tengo excusa para sobre vivir


C7
Si sientes vértigo al ver

Que tal vez te puedas caer

Tranquila yo te aguantare
                     A#7
O al menos eso intentare
             G#7               C7
y es que no se si rescatarte

Coro

C
  Ruleta rusa
F           D#
  Sálvame a mí
C                   F           D#
  Dame una excusa para sobrevivir
C
  Ruleta rusa
F           D#  C              F            D#
  Mátame a mi no tengo excusa para sobre vivir

C F D# C
00:00 / 00:00
Outros vídeos desta música
Repetir
Outros vídeos desta música
Compositor não encontrado.
11 exibições
    • ½ Tom
    • A
    • Bb
    • B
    • C
    • Db
    • D
    • Eb
    • E
    • F
    • F#
    • G
    • Ab
  • Adicionar à lista

    0 comentários

    Ver todos os comentários

    Entre para oCifra Club PRO

    Tenha acesso a benefícios exclusivos no App e no Site

    • Chega de anúncios

    • Prioridade de compra em lançamentos

    • Mais recursos no app do Afinador

    • Atendimento Prioritário

    • Descontos nos produtos Cifra Club

    • Ajude a produzir mais conteúdo

    00:00 / 00:00

    Cifra Club Pro

    Aproveite o Cifra Club com benefícios exclusivos e sem anúncios
    Cifra Club Pro
    Aproveite o Cifra Club com benefícios exclusivos e sem anúncios
    OK