Cifra Club

Sofridas Por Minuto (part. Marília Mendonça)

Vitor e Luan

Cifra: Principal (violão e guitarra)
tom: Db (forma dos acordes no tom de C) Capotraste na 1ª casa
[Intro] C  G  Am  Am7

E|--------------------------------|
B|---3h5----3-3h5---3-3h5--8--5---|
G|---5----5-------5---------------|
D|--------------------------------|
A|--------------------------------|
E|--------------------------------|

E|--------------------------------|
B|-----3-3h5----3-----------------|
G|---5--------5---5---------------|
D|--------------------------------|
A|--------------------------------|
E|--------------------------------|

[Primeira Parte]

   F                    G
Então, esse Oi com dois i
                   Am7
Não é pra te empolgar
                                F7M
Só fiquei sabendo que cê tá sofrendo 
                 G                   Am7
E eu vim te lembrar que a culpa foi sua

[Pré-Refrão]

           F                     G            Em
Mas calma aí, tenho uma notícia boa e outra ruim
                Am7                  F
A boa é que eu não volto mais com você 
                  G              Em               Am7
E a ruim é que você vai ter mais um motivo pra beber

[Refrão]

               F7M
Tá doendo sem mim, né?
   G               Am7
Relaxa que vai piorar
          C                 F7M
Você vai ver o boato me beijar
         G
E o seu coração no susto
                               Am7
Vai marcar 110 sofridas por minuto

               F
Tá doendo sem mim, né?
   G               Am7
Relaxa que vai piorar
          C                 F
Você vai ver o boato me beijar
         G
E o seu coração no susto
        Em                     Am7
Vai marcar 110 sofridas por minuto

[Solo] F7M  G  Am7  C 
       F7M  G  Am7 

E|-----------------------------4--|
B|-3/5--3-5p3-5p3---3h5--5-5-6----|
G|----------------5---------------|
D|--------------------------------|
A|--------------------------------|
E|--------------------------------|

E|---------------8-7-8/10-8-7h8p7-|
B|-6-5-6-5--3h5-------------------|
G|---------0----------------------|
D|--------------------------------|
A|--------------------------------|
E|--------------------------------|

[Pré-Refrão]

           F                     G            Em
Mas calma aí, tenho uma notícia boa e outra ruim
                Am7                  F
A boa é que eu não volto mais com você 
                  G              Em               Am7
E a ruim é que você vai ter mais um motivo pra beber

[Refrão]

               F
Tá doendo sem mim, né?
   G               Am7
Relaxa que vai piorar
          C                 F
Você vai ver o boato me beijar
         G
E o seu coração no susto
        Em               Am7
Vai marcar 110 sofridas por minuto

               F
Tá doendo sem mim, né?
   G               Am7
Relaxa que vai piorar
          C                 F
Você vai ver o boato me beijar
         G
E o seu coração no susto
        Em               Am7
Vai marcar 110 sofridas por minuto

[Primeira Parte]

   F                    G
Então, esse Oi com dois i
                   Am7
Não é pra te empolgar
00:00 / 00:00
Outros vídeos desta música
Repetir
Outros vídeos desta música
Composição de Anajuh / Elcio Di Carvalho / Matheus Neves / Renato Sousa
Colaboração e revisão:
  • Gustavo Vaz
5.668 exibições
    • ½ Tom
    • A
    • Bb
    • B
    • C
    • Db
    • D
    • Eb
    • E
    • F
    • F#
    • G
    • Ab
  • Adicionar à lista

    0 comentários

    Ver todos os comentários

    Conseguiu tocar?

    1 Tocaram 0 Ainda não

    Grave um vídeo tocando Sofridas Por Minuto (part. Marília Mendonça) e nos envie!

    Entre para oCifra Club PRO

    Tenha acesso a benefícios exclusivos no App e no Site

    • Chega de anúncios

    • Prioridade de compra em lançamentos

    • Mais recursos no app do Afinador

    • Atendimento Prioritário

    • Descontos nos produtos Cifra Club

    • Ajude a produzir mais conteúdo

    00:00 / 00:00

    Cifra Club Pro

    Aproveite o Cifra Club com benefícios exclusivos e sem anúncios
    Cifra Club Pro
    Aproveite o Cifra Club com benefícios exclusivos e sem anúncios
    OK