Cifra Club

Envolvidão

Vitor Kley

Cifra: Principal (violão e guitarra)
tom: F (forma dos acordes no tom de D) Capotraste na 3ª casa
[Intro] C9  Em7

   C9 
E|----------------------------------------------------------|
B|---6--x---------------------------------------------------|
G|---3--x---3h5--3h5p3--------------------------------------|
D|---5--x--------------3h5p3--------------------------------|
A|-6--------------------------------------------------------|
E|----------------------------------------------------------|

   Em7
E|----------------------------------------------------------|
B|----6-x--6/8----6/8/6p3-----6-x-6-------------------------|
G|----3-x---------------------3-x-3-------------------------|
D|----5-x---------------------5-x-5-------------------------|
A|----------------------------------------------------------|
E|--6-----------------------6-------------------------------|

C9
Ela tem cores, curvas, sabores, coisas que seduz e
Em7
Eu levo flores, som de cantores e ela ama ouvir
C9
Se der minha hora, preciso embora, mas ela me impede
Em7
De um jeito louco, fica um pouco, sou incapaz de ir
C9         Em7    D9/A
Não vou mentir,       fiquei envolvidão

                   C9
Malandro, era inevitável eu não me envolver
              Em7
Ela é inacreditável, você tinha que ver
   D4/G           C9
'Cê liga essas pretinha, toda emperiquitadinha
             Em7
Meio modeletezinha, na pegada France
D4/G          C9
Tem a simplicidade que é difícil se ver
          Em7
E a sagacidade que é difícil se ter
D4/G          C9
É de falar baixinho, gosta de calor, carinho
                      Em7
E quando vai tomar um vinho pra brindar diz Santé
D4/G          C9
A gente se combina, a gente tem tudo a ver
                 Em7
Se é coisa do destino, eu já não sei te dizer
D4/G        C9
Havia conhecido através de um conhecido
                    D9/A
Ela é prima de um amigo que eu trombei num rolê

[Refrão]

C9                                                 D9/A
Ela tem cores, curvas, sabores, coisas que seduz e
Em7                             D4/G
Eu levo flores, som de cantores e ela ama ouvir
C9                                                   D9/A
Se der minha hora, preciso embora, mas ela me impede
Em7                              D4/G
De um jeito louco, fica um pouco, sou incapaz de ir
C9         Em7    D9/A
Não vou mentir,       fiquei envolvidão

 C9  Em7
E ela qué, qué, qué
D9/A
Fiquei envolvidão

C9                                                 D9/A
Ela tem cores, curvas, sabores, coisas que seduz e
Em7                             D4/G
Eu levo flores, som de cantores e ela ama ouvir
C9                                                   D9/A
Se der minha hora, preciso embora, mas ela me impede
Em7                              D4/G
De um jeito louco, fica um pouco, sou incapaz de ir
C9         Em7    D9/A
Não vou mentir,       fiquei envolvidão

C9         Em7    D9/A                   Em7 
Não vou mentir,       fiquei envolvidão
00:00 / 00:00
Outros vídeos desta música
Repetir
Outros vídeos desta música
Composição de Rael
Colaboração e revisão:
  • Cicero Santos
3.188 exibições
    • ½ Tom
    • A
    • Bb
    • B
    • C
    • Db
    • D
    • Eb
    • E
    • F
    • F#
    • G
    • Ab
  • Adicionar à lista

    0 comentários

    Ver todos os comentários

    Conseguiu tocar?

    1 Tocaram 0 Ainda não

    Grave um vídeo tocando Envolvidão e nos envie!

    00:00 / 00:00

    Cifra Club Pro

    Aproveite o Cifra Club com benefícios exclusivos e sem anúncios
    Cifra Club Pro
    Aproveite o Cifra Club com benefícios exclusivos e sem anúncios
    OK