Cifra Club

O Amor É o Segredo

Vitor Kley

Cifra: Principal (violão e guitarra)
tom: G (forma dos acordes no tom de D) Capotraste na 5ª casa
[Intro] D

E|------------------------------------------|
B|-----7-5------5-3------3-2------2-0-------|
G|---7--------6--------4--------2-----------|
D|-0-----0--0-----0--0-----0--0-----0-------|
A|------------------------------------------|
E|------------------------------------------|

E|------------------------------------------|
B|-----7-5------5-3------3-2------2-0-------|
G|---7--------6--------4--------2-----------|
D|-0-----0--0-----0--0-----0--0-----0-------|
A|------------------------------------------|
E|------------------------------------------|

[Primeira Parte]
   
   D
E|------------------------------------------|
B|-7---7----7---7----7----7----7---7--------|
G|---7--------7---------7--------7----------|
D|-0-----0--0-----0--0------0--0-----0------|
A|------------------------------------------|
E|------------------------------------------|

   G
E|------------------------------------------|
B|------------------------------------------|
G|-0---0---0h2---0---0h4---0---0h2---0------|
D|---0---------0---------0---------0--------|
A|------------------------------------------|
E|-3-----3-3-------3-3-------3-3-------3----|

   D
E|------------------------------------------|
B|-7---7----5---5----7----7----5---5--------|
G|---7--------6---------7--------6----------|
D|-0-----0--0-----0--0------0--0-----0------|
A|------------------------------------------|
E|------------------------------------------|

   G
E|------------------------------------------|
B|------------------------------------------|
G|-0---0---0h2---0---0h4---0---0h2---0------|
D|---0---------0---------0---------0--------|
A|------------------------------------------|
E|-3-----3-3-------3-3-------3-3-------3----|

    D                    
Um dia me disseram que 
           G
Nada vai adiantar 
       D                    
Que o mundo ta perdido 
                G
E não sai do lugar 

[Segunda Parte]

   Bm7(11)          Bb7M
E|-----------0----------------0-------------|
B|-----3-------3--------3-------3-----------|
G|---2---2-------2----2---2-------2---------|
D|------------------------------------------|
A|-2-------2--------1-------1---------------|
E|------------------------------------------|

   A4                G#°
E|-----------0----------------0-------------|
B|-----3-------3--------3-------3-----------|
G|---2---2-------2----4---4-------4---------|
D|------------------------------------------|
A|-0-------0--------------------------------|
E|------------------4-------4---------------|

   G
E|------------------------------------------|
B|------------------------------------------|
G|-0---0---0h2---0---0h4---0---6---0--------|
D|---0---------0---------0-------0----------|
A|------------------------------------------|
E|-3-----3-3-------3-3-------3-3-----3------|

 Bm          Bb7M
Pena de quem acreditou 
      A4
Se a gente existe 
        G#°
Ainda existe o amor 
      G  
Então eu 
                Gm7
Te quero muito bem

[Refrão]

G
  Quero te amar sem medo
A9
   Sorrir sem saber porquê 
Bm7(11)              
       O amor é o segredo  
A9
   Que falta a gente entender

G
  Quero te amar sem medo
A9
   Sorrir sem saber porquê
Bm7(11)
        O amor é o segredo
A9                         G
   Que falta a gente entender

[Primeira Parte]

D                     
  Um dia me disseram que 
                 G
A razão vence o coração 
     D                    
Que não vale arriscar
             G
Uma nova paixão 

[Segunda Parte]

 Bm7(11)         Bb7M
Pena de quem deixou de amar
       A4
Viu os anos passarem
           G#°
As flores desabrocharem
      G
E partiu 
              Gm7
Sem amar ninguém

[Refrão]

G
  Quero te amar sem medo
A9
   Sorrir sem saber porquê 
Bm7(11)              
       O amor é o segredo  
A9
   Que falta a gente entender

G
  Quero te amar sem medo
A9
   Sorrir sem saber porquê
Bm7(11)
        O amor é o segredo
A9                         G
   Que falta a gente entender

Quero te amar sem medo
A9
   Sorrir sem saber porquê 
Bm7(11)              
       O amor é o segredo  
A9
   Que falta a gente entender

G
  Quero te amar sem medo
A9
   Sorrir sem saber porquê
Bm7(11)
        O amor é o segredo
A9                         G
   Que falta a gente entender
00:00 / 00:00
Outros vídeos desta música
Repetir
Outros vídeos desta música
Composição de Vitor Kley
Colaboração e revisão:
  • Thiago Almeida
15.618 exibições
  • Simplificar cifra
    • ½ Tom
    • A
    • Bb
    • B
    • C
    • Db
    • D
    • Eb
    • E
    • F
    • F#
    • G
    • Ab
  • Adicionar à lista

    0 comentários

    Ver todos os comentários

    Conseguiu tocar?

    4 Tocaram 1 Ainda não

    Grave um vídeo tocando O Amor É o Segredo e nos envie!

    00:00 / 00:00
    Capítulos
    • Apresentação
    • Ensinando Introdução
    • Ensinando Primeira Parte
    • Ensinando Segunda Parte
    • Ensinando Refrão
    • Encerramento

    Cifra Club Pro

    Aproveite o Cifra Club com benefícios exclusivos e sem anúncios
    Cifra Club Pro
    Aproveite o Cifra Club com benefícios exclusivos e sem anúncios
    OK