Cifra Club

Aprenda

Pupila

Vitor Kley

Cifra: Principal (violão e guitarra)
Tom: Eb (forma dos acordes no tom de D) Capotraste na 1ª casa
[Refrão]

                   D7M
Como que eu vou dizer pra ela
                      C#m7 
Que eu gosto do seu cheiro
                 Bm7
Da cor do seu cabelo?
                     A7M(9)
Que ela faz minha pupila dilatar?
            D7M
Eu quero dizer pra ele
                 C#m7
Que a rima fez efeito
                        Bm7
Agora eu penso o dia inteiro
                    A7M(9)   D7M   
Só ele faz minha pupila dilatar ah ah 

Ta tara tara 
 C#m7
Ta tá tá tá tara tara
 Bm7                   A7M
Ta tá tá tá tara tara ta

[TAB - Refrão]

Parte 1 de 4
   D7M           C#m7
E|---5-x----x------4-x----x-----------------|
B|-7---x--7-x-7--5---x--5-x-5---------------|
G|-6---x--6-x-6--4---x--4-x-4---------------|
D|-7---x--7-x-7--6---x--6-x-6---------------|
A|-5---x--5-x-5--4---x--4-x-4---------------|
E|-----x----x--------x----x-----------------|

Parte 2 de 4
   Bm7           A7M(9)
E|---2-x----x--------x----x-----------------|
B|-3---x--3-x-3--5-5-x--5-x-5---------------|
G|-2---x--2-x-2--4-4-x--4-x-4---------------|
D|-4---x--4-x-4--6-6-x--6-x-6---------------|
A|-2---x--2-x-2------x----x-----------------|
E|-----x----x----5---x--5-x-5---------------|

Parte 1 de 4
   D7M           C#m7
E|---5-x----x------4-x----x-----------------|
B|-7---x--7-x-7--5---x--5-x-5---------------|
G|-6---x--6-x-6--4---x--4-x-4---------------|
D|-7---x--7-x-7--6---x--6-x-6---------------|
A|-5---x--5-x-5--4---x--4-x-4---------------|
E|-----x----x--------x----x-----------------|

Parte 3 de 4
   Bm7           A7M(9)
E|---2-x----x--------x----------------------|
B|-3---x--3-x-3--5-5-x--5--5----------------|
G|-2---x--2-x-2--4-4-x--4--4----------------|
D|-4---x--4-x-4--6-6-x--6--6----------------|
A|-2---x--2-x-2------x----------------------|
E|-----x----x----5---x--5--5----------------|

Parte 1 de 4
   D7M           C#m7
E|---5-x----x------4-x----x-----------------|
B|-7---x--7-x-7--5---x--5-x-5---------------|
G|-6---x--6-x-6--4---x--4-x-4---------------|
D|-7---x--7-x-7--6---x--6-x-6---------------|
A|-5---x--5-x-5--4---x--4-x-4---------------|
E|-----x----x--------x----x-----------------|

Parte 4 de 4
   Bm7           A7M
E|---2-x----x----0--------------------------|
B|-3---x--3-x-3--2--------------------------|
G|-2---x--2-x-2--1--------------------------|
D|-4---x--4-x-4--2--------------------------|
A|-2---x--2-x-2--0--------------------------|
E|-----x----x-------------------------------|
                 ↓


[Primeira parte]

 D7M                         C#m7
Sabe, depois que eu te conheci 
                    Bm7
Ficou difícil de viver
                         A7M(9)
Eu fico aqui imaginando coisas com você
 D7M                    C#m7
Viu, o nosso som é parecido
                            Bm7
Será que isso é obra do destino?
                  A7M(9)
Pensando bem, contigo até combino

[TAB - Primeira parte]

Parte 1 de 2
   D7M           C#m7
E|---5-x----x------4-x----x-----------------|
B|-7---x--7-x-7--5---x--5-x-5---------------|
G|-6---x--6-x-6--4---x--4-x-4---------------|
D|-7---x--7-x-7--6---x--6-x-6---------------|
A|-5---x--5-x-5--4---x--4-x-4---------------|
E|-----x----x--------x----x-----------------|

Parte 2 de 2
   Bm7           A7M(9)
E|---2-x----x--------x----x-----------------|
B|-3---x--3-x-3--5-5-x--5-x-5---------------|
G|-2---x--2-x-2--4-4-x--4-x-4---------------|
D|-4---x--4-x-4--6-6-x--6-x-6---------------|
A|-2---x--2-x-2------x----x-----------------|
E|-----x----x----5---x--5-x-5---------------|


[Refrão]

                   D7M
Como que eu vou dizer pra ela
                      C#m7 
Que eu gosto do seu cheiro
                 Bm7
Da cor do seu cabelo?
                     A7M(9)
Que ela faz minha pupila dilatar?
            D7M
Eu quero dizer pra ele
                 C#m7
Que a rima fez efeito
                        Bm7
Agora eu penso o dia inteiro
                    A7M(9)   D7M   
Só ele faz minha pupila dilatar ah ah 

Ta tara tara 
 C#m7
Ta tá tá tá tara tara
 Bm7                   A7M
Ta tá tá tá tara tara ta

[Segunda parte]

 D7M _________(PAUSA)_____________
Faz de conta que eu te conheço bem
  C#m7
Quero algum atalho pra te convencer
       Bm7
Que a gente se combina, só você não vê
        A7M(9)
Mas eu vejo, eu vejo, ah
   D7M
Ensaio no espelho pra tentar ligar 

(tentar ligar)
   C#m7
Invento mil acasos pra te esbarrar 
     Bm7
por aí

Não sei o que eu faço, eu quero mais
     A7M(9)
Eu quero mais de ti

[TAB - Segunda parte]

Variação (PAUSA)
   D7M           C#m7
E|-----------------4-x----x-----------------|
B|-7-------------5---x--5-x-5---------------|
G|-6-------------4---x--4-x-4---------------|
D|-7-------------6---x--6-x-6---------------|
A|-5-------------4---x--4-x-4---------------|
E|-------------------x----x-----------------|

[Refrão]

                   D7M
Como que eu vou dizer pra ela
                      C#m7 
Que eu gosto do seu cheiro
                 Bm7
Da cor do seu cabelo?
                     A7M(9)
Que ela faz minha pupila dilatar?
            D7M
Eu quero dizer pra ele
                 C#m7
Que a rima fez efeito
                        Bm7
Agora eu penso o dia inteiro
                    A7M(9)   F#m   
Só ele faz minha pupila dilatar

[Terceira Parte]

F#m          C#m7
    É bom demais querer alguém
         Bm7
E eu quero você, e eu quero você
       A7M(9)     E/G#     F#m
Eu quero você, ah ah ah ah ah 
         C#m7
É bom demais querer alguém
       Bm7
E é você que eu quero

e é você que eu quero
       A7M(9)
E é você, oh

[Refrã Final]

                   D7M
Como que eu vou dizer pra ele
                     C#m7
Que eu quero aquele beijo?
                    Bm7
Que eu sei guardar segredo?
                 A7M(9)
Ninguém precisa nem desconfiar
            D7M
Eu quero dizer pra ela
                  C#m7
Que eu amo o seu jeito
                      Bm7
Que o seu óculos é maneiro
                     A7M(9)   D7M
Que ela faz minha pupila dilatar ah ah 

Ta tara tara 
 C#m7
Ta tá tá tá tara tara
 Bm7
Ta tá tá
                     A7M(9)   D7M
Que ela faz minha pupila dilatar ah ah 

Ta tara tara 
 C#m7
Ta tá tá tá tara tara
 Bm7                   A7M
Ta tá tá tá tara tara tá    ih hi hi hi
Composição de Ana Caetano / Vitor Kley
Colaboração e revisão:
  • Caico Antunes
6.595 exibições
    • ½ Tom
    • A
    • Bb
    • B
    • C
    • Db
    • D
    • Eb
    • E
    • F
    • F#
    • G
    • Ab
  • Adicionar à lista

    0 comentários

    Mostrar mais comentários

    Conseguiu tocar?

    1 Tocaram 0 Ainda não

    Grave um vídeo tocando Pupila e mande pra gente!

    00:00 / 00:00
    outros vídeos desta música
    repetir qualidade Automático
    Outros vídeos desta música
    00:00 / 00:00
    Automático
    OK