Cifra Club

Último Pedido

Vitor Ramil

Cifra: Principal (violão e guitarra)
Tom: D
E|-------------------0-----0--------------------------0-----0-------
B|---3-----3-----0-----5-----5---0----3-----3-----0-----5-----5---0-
G|-----4-----4-----------4-----4--------4-----4-----------4-----4---   (2x)
D|-------5-----5--------------------------5-----5-------------------
A|------------------------------------------------------------------
D|-5---------------5----------------5---------------5---------------

                (Se um dia a morte maleva)
E|------------------------------------0-----0---------
B|---3-----3-----0----3-----3-----0-----5-----5---0---
G|-----4-----4----------4-----4-----------4-----4-----
D|-------5-----5----------5-----5---------------------
A|----------------------------------------------------
D|-5----------------5---------------5-----------------

  (Me dá um pealo de cucharra)        (Numa saída de farra)
E|----------------------------------------------------
B|---3-----3-----0----3-----3-----0---3-----3-----0---
G|-----4-----4----------4-----4---------4-----4-------
D|-------0-----0----------5-----5---------2-----2-----
A|----------------------------------------------------
D|-0----------------5---------------2-----------------

                   (Me faça torcer o alcatre)
E|----------------------------------------------------
B|---3-----3-----0----3-----3-----0---3-----3-----0---
G|-----4-----4----------4-----4---------4-----4-------
D|-------2-----2----------0-----0---------5-----5-----
A|-0--------------------------------------------------
D|-----------------0----------------5-----------------

  (Me ajeitem bem sobre um catre) (Me tirem os laço das garra)
E|-------------------0-----0-----------------------------------------
B|---3-----3-----0-----5-----5---0---3-----3-----0---3-----3-----0---
G|-----4-----4-----------4-----4-------4-----4---------4-----4-------
D|-------5-----5-------------------------0-----0---------5-----5-----
A|-------------------------------------------------------------------
D|-5---------------5---------------0----------------5----------------

E|----------------------0-----0---------
B|------3-----3-----0-----5-----5---0---
G|--------4-----4-----------4-----4-----
D|----------5-----5---------------------
A|--------------------------------------
D|----5---------------5-----------------
exibições 2.034
Acordes para:
    Composição: Vitor Ramil Poema De João Da Cunha Vargas Colaboração e revisão:
    • Carlos Lolatto

    0 comentários

    mostrar mais comentários

    Conseguiu tocar?

    0 tocaram 0 ainda não

    Grave um vídeo tocando Último Pedido e mande pra gente!

    00:00 / 00:00
    outros vídeos desta música
    repetir qualidade Automático
    Outros vídeos desta música
    00:00 / 00:00
    Automático
    OK